PrimaNota.ru - самый крупный в мире бесплатный архив песенных текстов, аккордов, табулатур и нот


Church - One Day - текст песни, таба, видео

Регистрация Запомнить меня
Войти через:  Facebook Google Twitter Vk Yandex Mail.ru

Church - One Day - текст песни, таба, видео

Печатать
Просмотров: 130
-------------------------------------------------------------------------------
                             ONE DAY - The Church
-------------------------------------------------------------------------------
Tabbed by: Justin
Email:eddyx77@hotmail.com

Tuning:Standard

Couldn't find a lot of Church tabs anywhere so I thought I'd give it a go.  

Intro:
e|-----------------------------|   x4
B|-----------------------------|  
G|-----4----------4-----7-6-4--|
D|--------7----------7---------|
A|--5----------5---------------|
E|-----------------------------|

Verse: 
Chords:
   D                             E minor
e|-----------------------------|-----------------------------|
B|-----------------------------|-----------------------------|
G|-----4----------4-----7-6-4--|-----4----------4-----7-6-4--|
D|--------7----------7---------|--------7----------7---------|
A|--5----------5---------------|--7----------7---------------|
E|-----------------------------|-----------------------------|

   G                             D
e|-----------------------------|-----------------------------|
B|-----------------------------|-----------------------------|
G|-----4----------4-----7-6-4--|-----4----------4-----7-6-4--|
D|--5-----7----5-----7---------|--------7----------7---------|
A|-----------------------------|--5----------5---------------|
E|-----------------------------|-----------------------------|

Repeat the above progression twice before he starts singing, and continue throughout the verse:

D        Em      
Tell me, is everything unplanned?
G                             D      
It's all so unexpected that I just can't understand
D                                Em
We run so hard and always end up in the same place
G                                      D
"Glad that went so smoothly" well that never is the case

Chorus:
  G                             D 
e|-----------------------------|-----------------------------|
B|-----------------------------|-----------------------------|
G|-----4----------4------------|-----4----------4------------|
D|--5-----7----5-----7---------|--------7----------7---------|
A|-----------------------------|--5----------5---------------|
E|-----------------------------|-----------------------------|
   One day                       Doubtless, cloudless, bright
                            (or maybe he says "the darkest cloud is bright")
  G                             D
e|-----------------------------|-----------------------------|
B|-----------------------------|-----------------------------|
G|-----4----------4------------|-----4----------4------------|
D|--5-----7----5-----7---------|--------7----------7---------|
A|-----------------------------|--5----------5---------------|
E|-----------------------------|-----------------------------|
  We'll shake away the shadows   of eternal night         It's

  C                              G
e|-----------------------------|-----------------------------|
B|-----------------------------|-----------------------------|
G|-----4----------4------------|-----4----------4------------|
D|--------7----------7---------|--5-----7----5-----7---------|
A|--7----------7---------------|-----------------------------|
E|-----------------------------|-----------------------------|
just the storm before the calm  Like the life held in your palm

  A                             D
e|-----------------------------|-----------------------------|
B|-----------------------------|-----------------------------|
G|-----4----------4------------|-----4----------4------------|
D|--7-----7----7-----7---------|--------7----------7---------|
A|-----------------------------|--5----------5---------------|
E|-----------------------------|-----------------------------|
  its clay                      one day


And then back to the verse: (D Em G D)

And you stand there, with ashes blowing past
Dipping into gilt-edged love that will be made at last
And the gold you spend and the hastening end
That you throw into the sea
Coming back a hundredfold, there's no guarantee

(and then back to the chorus)

(no guitar for this verse)
We'll walk and be like giants, we'll all be honest men
I go back to my blindness so that I may see again
A woman standing on a hill is gazing out to sea
Dreaming of a new age waiting there for me

(D Em G D)
I call her from a distance and she smiles into the sun
And men and gods begin their dance, for their time has begun
And holy wars extended and battlefields of pain
Washed away, forgotten in the perfect rain
Princes, kings and humble things are well-worn and content
Messengers come everywhere, envoys have been sent
Na na na na, na na na na na
A palm tree nodded at me last night he said
'Hey you look so pale.'



Добавлено: 01.06.2012
Другие материалы по этой песне:
  • Аккорды и текст

Страница создана 01.06.2012
http://primanota.ru/church/one-day-chords.htm
Привет, Гость.
Предлагаем пройти революционный курс по гитаре.
Подарок от PrimaNota.Ru, забирай!