PrimaNota.ru - самый крупный в мире бесплатный архив песенных текстов, аккордов, табулатур и нот


Church Of Rhythm - Take My Hand - таба, видео

Регистрация Запомнить меня
Войти через:  Facebook Google Twitter Vk Yandex Mail.ru

Church Of Rhythm - Take My Hand - таба, видео

Печатать
Просмотров: 120
		   Author/Artist: Church of Rhythm
Title: Take my Hand
Album: Not Perfect
Transcribed by: Brian Germer (Soul Detergent Music)
Email: BJG20773@ix.netcom.com


For more COR tabs: http://www.geocities.com/SunsetStrip/Lounge/6098/index.htm


This one is in standard tuning and goes something like this...


Intro: The intro riff below isn't totally accurate, but it gives the general idea.
*Use a vibrato effect for this part:


------------------------------------------0----------------|
-------------0-----0--------0-------------0----------------|
----------3------3--------3-----------3------3-----3-------|
-------4---------------4------------4----------------------|
-----------------------------------------------------------|
--0h2--------------------------0h2--------------------2----|
                                                                              


-----------------------|----|------------------------------|---|
-----------------------|----|------------------------------|---|
-----------------------|----|-----------2-x--5-5-5-5--2----|---|
-----------------------|-4x-|--4-4--4---2-x--5-5-5-5--2--2-|-4x|
-----------------------|----|--4-4--4---0-x--3-3-3-3--0--2-|---|
--0h2-0-2-0-2-0-2-2-0--|----|--0h2--2--------------------0-|---|
  Bass line- intro & chorus    Heavy Lead-in riff                             


------------------------------------------|-------------------------|---------
------------------------------------------|--5h7--7-7--7-7-7-7-7-7--|---------
------------------------------------------|-------------------------|---------
-------------------------8---------7------|-------------------------|4x-------
-----4---------2------6-----6---5-----5---|-------------------------|---------
--2-----2---0-----0-----------------------|-------------------------|---------
  Verse riff                                Lead part over Lead-in riff**


Order of Song:


Intro riff
Intro bass line x4
Heavy Lead-in riff  x4
Verse 1:  (use verse riff)


Tell me brother tell me
Where have you been to?
You know you've been gone a while
And I prayed you'd make it through
If I never said it, you'd make it through
And I hope you know my friend that your place is next to mine


Chorus (chords over above bass line)
F#M              EM 
Take my hand and lift it up
    BM 
And together we will stand
            F#M
And they'll know us by our love   (brother brother)


Heavy lead-in 4x


Verse 2:


Forgive me my friend
If I don't hear you right,
I won't always understand
The darkness of your night
But if my love isn't bigger than your fears
The day that you come back home, I will gladly say through tears


Chorus
Intro bass line x4
Heavy lead-in x8 **(play the lead part the last four times)
Chorus


Note:  There is a second guitar using a Wah, but the parts are so simple that I didn't bother
to tab it.  If you want to play it, just play a high F# and rock the pedal the pedal with the
beat.


Music and Lyrics: Max Hsu
c1996 CorFour music/ASCAP     
Добавлено: 28.08.2013
Вам также может быть интересно:
Другие материалы по этой песне:
  • Аккорды и текст

Страница создана 28.08.2013
http://primanota.ru/church-of-rhythm/take-my-hand-chords.htm
Привет, Гость.
Предлагаем пройти революционный курс по гитаре.
Подарок от PrimaNota.Ru, забирай!