PrimaNota.ru - самый крупный в мире бесплатный архив песенных текстов, аккордов, табулатур и нот


Church Of Misery - Road To Ruin - таба, видео

Регистрация Запомнить меня
Войти через:  Facebook Google Twitter Vk Yandex Mail.ru

Church Of Misery - Road To Ruin - таба, видео

Печатать
Просмотров: 43
Уроки эстрадного вокала в Санкт-Петербурге
Авторы музыки: Tomohiro Nishimura
Авторы текста: Tomohiro Nishimura
-------------------------------------------------------------------------------
              ROAD TO RUIN (CHARLES WHITMAN) - Church of Misery
-------------------------------------------------------------------------------
Tabbed by: Golgathor

Tuning: C# F# B E G# c#


RIFF I
c#||-----------------------------------------------------------------------||
G#||-----------------------------------------------------------------------||
E ||-----------------------------------------------------------------------||
B ||-7/9--9-9--------12-12-12-----------7/9--9-9--------12-12-12-----------||
F#||-5/7--7-7------x-10-10-10-9-br----x-5/7--7-7------x-10-10-10-12br--9-x-||
C#||-----------5/7-x---------------10-x-----------5/7-x------------------x-|| 4x


RIFF II
c#||-----------------------------------------------------------|
G#||-----------------------------------------------------------|
E ||---------12--12\-------------------------------------------|
B ||-7/9-9-9-12--12\-------------------------------------------|
F#||-5/7-7-7----------/7--5-----4b--~~---4br------------/7--5--|
C#||-------------------------5--------5-------5--/5--3---------|

c#|-----------------------------------------------------------||
G#|-----------------------------------------------------------||
E |---------12--12\-------------------------------------------||
B |-7/9-9-9-12--12\-----------------------------/7--5---------||
F#|-5/7-7-7----------/7--5-----4b--~~---4br------------/7--5--||
C#|-------------------------5--------5-------5----------------|| 2x


VERSE 1
c#||---------------------------------------------------------------||
G#||---------------------------------------------------------------||
E ||------------/12~~--------------------------/12~~---------------||
B ||-7/9--9-9----------------5p4----7/9--9-9----------------5p4-7~~||
F#||-5/7--7-7-x------x-----5-----5~~5/7--7-7-x------x-----5--------||
C#||----------x------x-5h7-------------------x------x-5h7----------|| 4x
  Under cruel sunshine,             On nineteen sixty-six
  Take a look to clear blue sky,    My sanity has gone
  I killed my mother at midnight,   Then stab my wife to death
  Ready for a final solution,       Now I got a gun


RIFF II
c#||-----------------------------------------------------------|
G#||-----------------------------------------------------------|
E ||---------12--12\-------------------------------------------|
B ||-7/9-9-9-12--12\-------------------------------------------|
F#||-5/7-7-7----------/7--5-----4b--~~---4br------------/7--5--|
C#||-------------------------5--------5-------5--/5--3---------|

c#|-----------------------------------------------------------||
G#|-----------------------------------------------------------||
E |---------12--12\-------------------------------------------||
B |-7/9-9-9-12--12\-----------------------------/7--5---------||
F#|-5/7-7-7----------/7--5-----4b--~~---4br------------/7--5--||
C#|-------------------------5--------5-------5----------------|| 2x


VERSE 2
c#||---------------------------------------------------------------||
G#||---------------------------------------------------------------||
E ||------------/12~~--------------------------/12~~---------------||
B ||-7/9--9-9----------------5p4----7/9--9-9----------------5p4-7~~||
F#||-5/7--7-7-x------x-----5-----5~~5/7--7-7-x------x-----5--------||
C#||----------x------x-5h7-------------------x------x-5h7----------|| 4x
  My final day of summer,           With my rifle up to the tower
  Take a look down to the ground,   To searching for my target
  Fifteen people had died,          Here there and everywhere
  No reason to kill someone,        I just pull the trigger


RIFF IV
c#||------------------------------------------------------------------------||
G#||------------------------------------------------------------------------||
E ||------------------------------------------------------------------------||
B ||-7/9-9-9-9--9-9-9/12-12-12-12--12-12-12\7-7-7-7--7-7-7/9-9-9-9/12-12----||
F#||-5/7-7-7-7--7-7-7/10-10-10-10--10-10-10\5-5-5-5--5-5-5/7-7-7-7/10-10-x\-||
C#||---------------------------------------------------------------------x\-|| 2x


VERSE 3
c#||------------------------------------------------------------------------||
G#||------------------------------------------------------------------------||
E ||------------------------------------------------------------------------||
B ||-7/9-9-9-9--9-9-9/12-12-12-12--12-12-12\7-7-7-7--7-7-7/9-9-9-9/12-12----||
F#||-5/7-7-7-7--7-7-7/10-10-10-10--10-10-10\5-5-5-5--5-5-5/7-7-7-7/10-10-x\-||
C#||---------------------------------------------------------------------x\-|| 4x
  Life's not worth living,               If there's a Hell you'll see me there
  Hear my cry, feel my fear,             Still I'm in pain and misery
  Life's not worth living,               If there's a Hell you'll see me there
  Hear my cry, feel my fear,             Still I'm in pain and misery


SOLO I
(Rhythm plays Riff IV 8x)


VERSE 3 REPRISE
c#||------------------------------------------------------------------------||
G#||------------------------------------------------------------------------||
E ||------------------------------------------------------------------------||
B ||-7/9-9-9-9--9-9-9/12-12-12-12--12-12-12\7-7-7-7--7-7-7/9-9-9-9/12-12----||
F#||-5/7-7-7-7--7-7-7/10-10-10-10--10-10-10\5-5-5-5--5-5-5/7-7-7-7/10-10-x\-||
C#||---------------------------------------------------------------------x\-|| 4x
  Life's not worth living,               If there's a Hell you'll see me there
  Hear my cry, feel my fear,             Still I'm in pain and misery
  Life's not worth living,               If there's a Hell you'll see me there
  Hear my cry, feel my fear,             Still I'm in pain and misery


RIFF IV
c#||------------------------------------------------------------------------||
G#||------------------------------------------------------------------------||
E ||------------------------------------------------------------------------||
B ||-7/9-9-9-9--9-9-9/12-12-12-12--12-12-12\7-7-7-7--7-7-7/9-9-9-9/12-12----||
F#||-5/7-7-7-7--7-7-7/10-10-10-10--10-10-10\5-5-5-5--5-5-5/7-7-7-7/10-10-x\-||
C#||---------------------------------------------------------------------x\-|| 2x


SOLO II
(Rhythm plays Riff IV 6x)


OUTRO
c#||-----------------------------||
G#||------11-----11------9----9--||
E ||---10-----10-------8----8----||
B ||-8---------------6-----------||
F#||-----------------------------||
C#||-----------------------------|| 6x



************************************

| /   slide up
| \   slide down
| h   hammer-on
| p   pull-off
| ~   vibrato
| +   harmonic
| x   Mute note
| b   Bend
| pb  Pre-bend
| br  Bend release
| pbr Pre-bend release
| brb Bend release bend

************************************
Добавлено: 19.06.2016
Другие материалы по этой песне:
  • Аккорды и текст

Страница создана 19.06.2016
http://primanota.ru/church-of-misery/road-to-ruin-chords.htm
Привет, Гость.
Предлагаем пройти революционный курс по гитаре.
Подарок от PrimaNota.Ru, забирай!