PrimaNota.ru - самый крупный в мире бесплатный архив песенных текстов, аккордов, табулатур и нот


Chunk No Captain Chunk - Captain Blood - текст песни, таба, видео

Регистрация Запомнить меня
Войти через:  Facebook Google Twitter Vk Yandex Mail.ru

Chunk No Captain Chunk - Captain Blood - текст песни, таба, видео

Печатать
Просмотров: 170
This is my first ever tab, so hopefully this goes well...
Anyways, amazing band, amazing song, pretty easy to learn. Don't think it's
exactly perfect, but this is what I make it out to be...
Enjoy! :)

NOTE: there are NO 1's in this song, so it IS 11's and 12's!
Tuning: Drop A#

Intro:
C |-----------------------------------------------|
G |-----------------------------------------------|
D#|-----------------------------------------------|
A#|-----------------------------------------------|
F |--------------------------------------5----5/7-|
A#|-0--11h12p11--0-0-0---0-0-0---0-0-0-----0------|
                 . .     . .     . .       .

C |----------------------------------------------------|
G |----------------------------------------------------|
D#|----------------------------------------------------|
A#|----------------------------------------------------| (all x2)
F |-------------------------------------------9----9/7-|
A#|-0--11h12p11--0-0-12---0-0-12---0-0-12--0----0------|
                 . .      . .      . .     .    .

Gang vocals at 0:12
C |-----------(9)--|
G |-----------(9)--| (natural harmonic)
D#|-----------(9)--|
A#|-----------(9)--|
F |-0--(x28)-------|
A#|-0--------------|
    .

Verse 1:
(t = 10)
C |------------------------------------------------------------------------|
G |------------------------------------------------------------------------|
D#|------------------------------------------------------------------------|
A#|------------------------------------------------------------------------|
F |--------------------------5555-4444---------------------------9999-5555-|
A#|-000-000-000-000-000-000-------------000-000-000-000-000-000------------|
    ..  ..  ..  ..  ..  ..              ..  ..  ..  ..  ..  ..


C |-----------------------------------------------------------------------|
G |-----------------------------------------------------------------------|
D#|-----------------------------------------------------------------------|
A#|-----------------------------------------------------------------------|
F |-------------------------------------------------------------tttt-9999-|
A#|-000-000-000-000-000-000--55555555--000-000-000-000-000-000------------|
    ..  ..  ..  ..  ..  ..   ........  ..  ..  ..  ..  ..  ..

Pre-Chorus 1:
C |-------------------------------------------------------------------|
G |-------------------------------------------------------------------|
D#|-------------------------------------------------------------------|
A#|-5-5-5-5-5-5-5-5--8-8-8-8-8-8-8-8-----------------------------(x2)-|
F |-5-5-5-5-5-5-5-5--8-8-8-8-8-8-8-8----------------------------------|
A#|-5-5-5-5-5-5-5-5--8-8-8-8-8-8-8-8--000000000--000--000--00000------|
                                      ........   ..   ..   ....

C |---------------------------------|
G |---------------------------------|
D#|---------------------------------|
A#|---------------------------------|
F |-5-5-5-5-5-5-5-5--7-7-7-7-7---7/-|
A#|-5-5-5-5-5-5-5-5--7-7-7-7-7-777/-|
    . . . . . . . .  . . . . . ..

Chorus:
C |----------------------------|
G |----------------------------|
D#|----------------------------|
A#|-0---------9--------5-------| (x2)
F |-0--(x16)--9--(x8)--5--(x8)-|
A#|-0---------9--------5-------|

-REPEAT INTRO-

Verse 2
C |------------------------------------------------------------------|
G |------------------------------------------------------------------|
D#|------------------------------------------------------------------|
A#|------------------------------------------------------------------|
F |---------------------------------------------------------------7--|
A#|-0-000-00000-000-000-000-5-555-550-000-00000-000-000-000-9-999----|
      ..  ....  ..  ..  ...   ..  ..  ..  ....  ..  ..  ...   ..
C |------------------------------------------------------------------|
G |------------------------------------------------------------------|
D#|------------------------------------------------------------------|
A#|------------------------------------------------------------------|
F |------------------------------------------------------------------|
A#|-0-000-00000-000-000-000-5-555-550-000-00000-000-000-000-55555----|
      ..  ....  ..  ..  ...   ..  ..  ..  ....  ..  ..  ... .....

Pre-Chorus 2:
C |----------------------------------------|
G |----------------------------------------|
D#|---------------------------------(x3)---|
A#|----------------------------------------|
F |----------------------------------------|
A#|-0-0011-12-0000000---005-009-007--------|
      ..      ......    ..  ..  ..
The fourth time it's just a different ending:
C |----------------------------------------|
G |----------------------------------------|
D#|----------------------------------------|
A#|----------------------------------------|
F |----------------------------------------|
A#|-0-0011-12-0000000---000-0077777--------|
      ..      ......    ..  .......

-REPEAT CHORUS-

Bridge:
C |-----------------------------------------------------------|
G |-----------------------------------------------------------|
D#|------------------------------------------------------(x2)-|
A#|-----------------------------------------------------------|
F |-----------------------------------------------------------|
A#|-000000000--000-000-00000--999999999--999-5-55-5-5-55------|
    ........   ..  ..  ....   ........   ..  . .  . . .

BREAKDOWWWWWN!
C |---------------------------------------|
G |---------------------------------------|
D#|----------------------------------(x2)-|
A#|---------------------------------------|
F |---------------------------------------|
A#|-0-00000-00000-00000-00000-000-00------|
      ....  ....  ....  ....  ..  ..

C |-------------------------------------------------------------|
G |-------------------------------------------------------------|
D#|-------------------------------------------------(x2)--------|
A#|-------------------------------------------------------------|
F |-000000-00-00-0-0-00--000000-000-000-000-000-000-------------|
A#|-000000-00-00-0-0-00--000000-000-000-000-000-000-------------|
    ...... .. .. . . ..  ...... ... ... ... ... ...

C |---------------------------------------------------------|
G |---------------------------------------------------------|
D#|----------------------------------------------------(x2)-|
A#|---------------------------------------------------------|
F |-0000-0000000000-5555-4444-0000-0000000000-9999-5555-----|
A#|-0000-0000000000-----------0000-0000000000---------------|
    .... ..........           .... ..........

-REPEAT CHORUS-
-REPEAT BRIDGE-

The most awesome outro EVER:
C |-----------------------------------------------------------------------------|
G |-----------------------------------------------------------------------------|
D#|------------------------------------------------------------------------(x2)-|
A#|-----------------------------------------------------------------------------|
F |---------------------------------------------------------5-5-55--5-5-55------|
A#|-0-0-12-0---0-12-0---0-12-0-11-0-12-0-9-9-12-9-99-9-12-9-5-5-55--5-5-55------|
                                                            . . .   . . .
C |----------|
G |----------|
D#|----------|
A#|-0--------|
F |-0--------|
A#|-0--------|
Добавлено: 23.06.2012
Другие материалы по этой песне:

Страница создана 05.05.2012
http://primanota.ru/chunk-no-captain-chunk/captain-blood-chords.htm
Привет, Гость.
Предлагаем пройти революционный курс по гитаре.
Подарок от PrimaNota.Ru, забирай!