PrimaNota.ru - самый крупный в мире бесплатный архив песенных текстов, аккордов, табулатур и нот


Chunk No Captain Chunk - All Star - таба, бас-таба, видео

Регистрация Запомнить меня
Войти через:  Facebook Google Twitter Vk Yandex Mail.ru

Chunk No Captain Chunk - All Star - таба, бас-таба, видео

Печатать
Просмотров: 425
Авторы музыки: Greg Camp
Авторы текста: Greg Camp
Tabbed by: AVABLINK44
Song: All Star
By: Chunk! No Captain Chunk
Tuning: Drop A#

[X means mute previous note and hit, and ~ means slide down]

Verse 1

|---------------------------------------------------------
|---------------------------------------------------------
|---------------------------------------------------------
|-0---0--0-0-5--7---7--7-7-9--2---2--2-2-4--5---5--5-5-5-5
|-0---0--0-0-5--7---7--7-7-9--2---2--2-2-4--5---5--5-5-5-5
|-0---0--0-0-5--7---7--7-7-9--2---2--2-2-4--5---5--5-5-5-5

Chorus

|------------------------------------------------------------------------------------------------------------
|------------------------------------------------------------------------------------------------------------
|-----------------------------------------7-6-7-6------------------------------------------------------------
|-0---0----0--5---5--x--5--6---6--x-6--5-5----------0---0--x-0--5---5--x-5--6---6--x-6--5-5------------------
|-0---0----0--5---5--x--5--6---6--x-6--5-5----------0---0--x-0--5---5--x-5--6---6--x-6--5-5-- 4-5-5-4-5-5-4-5
|-0---0--x-0--5---5--x--5--6---6--x-6--5-5----------0---0--x-0--5---5--x-5--6---6--x-6--5-5------------------

|----------------------------------------------------------------
|----------------------------------------------------------------
|-5~---------------------------------------------5-5-5-5---------
|-5~-5--5-5--5-5-5--6--5--5-5--5-5-5----0-0-0-0--5-5-5-5--5~-----
|-5~-5--5-5--5-5-5--6--5--5-5--5-5-5----0-0-0-0--3-3-3-3--5~-----
|----5--5-5--5-5-5--6--5--5-5--5-5-5----0-0-0-0-----------5~-----

Verse 2

|-----------------------------------------    
|-----------------------------------------
|----------------------------------------- 
|-0--12--5-6-7-9-12---2--12--4-5-5-0-0-0-0
|-0--12--5-6-7-9-12---2--12--4-5-5-0-0-0-0
|-0--12--5-6-7-9-12---2--12--4-5-5-0-0-0-0


|-------------------------------------------------------------------
|-------------------------------------------------------------------
|-------------------------------------------------------------------
|-0-0-0-0-0-0-0-0--7-7-7-7-7-7-7-7--2-2-2-2-2-2-2-2--5-5-5-5-5-5-5-5
|-0-0-0-0-0-0-0-0--7-7-7-7-7-7-7-7--2-2-2-2-2-2-2-2--5-5-5-5-5-5-5-5
|-0-0-0-0-0-0-0-0--7-7-7-7-7-7-7-7--2-2-2-2-2-2-2-2--5-5-5-5-5-5-5-5


Verse 3

|--------------------------------------------------------------------------------
|--------------------------------------------------------------------------------
|--------------------------------------------------------------------------------
|-0-0-0-0--5-5-5-5-5-5-5-5--6-6-6-6--5-5-5-5-5-5-5-5-----------------------------
|-0-0-0-0--5-5-5-5-5-5-5-5--6-6-6-6--5-5-5-5-5-5-5-5-----------------------------
|-0-0-0-0--5-5-5-5-5-5-5-5--6-6-6-6--5-5-5-5-5-5-5-5-----------------------------

|----------------5---5-7-5-0--------------------10------------------5-5-7-5-0--------------------
|----------------7---7-7-7-7----------------7-7-7-------------------7-7-7-7-7--------------------
|----------------7---7-7-7-7----------------7-7-7-------------------7-7-7-7-7--------------------
|-0-0-0-0-0-0-5--------------6-6-6-6-6-6-5----------0-0-0-0-0-0-0-5-----------6-6-6-6-6-6-5------
|-0-0-0-0-0-0-5--------------6-6-6-6-6-6-5----------0-0-0-0-0-0-0-5-----------6-6-6-6-6-6-5------
|-0-0-0-0-0-0-5--------------6-6-6-6-6-6-5----------0-0-0-0-0-0-0-5-----------6-6-6-6-6-6-5-2----

Bridge

|----------------------------------------------------------------------
|----------------------------------------------------------------------
|----------------------------------------------------------------------
|-0-0-0-0-0-0-0-0--5-5-5-5-5-5-5-5--6-6-6-6-6-6-6-6--5-5-5-5-5-5-5-5---
|-0-0-0-0-0-0-0-0--5-5-5-5-5-5-5-5--6-6-6-6-6-6-6-6--5-5-5-5-5-5-5-5---
|-0-0-0-0-0-0-0-0--5-5-5-5-5-5-5-5--6-6-6-6-6-6-6-6--5-5-5-5-5-5-5-5---

If there are any mistakes please let me know! thanks!
Добавлено: 12.09.2014
Вам также может быть интересно:
Другие материалы по этой песне:

Страница создана 05.05.2014
http://primanota.ru/chunk-no-captain-chunk/all-star-chords.htm
Привет, Гость.
Предлагаем пройти революционный курс по гитаре.
Подарок от PrimaNota.Ru, забирай!