PrimaNota.ru - самый крупный в мире бесплатный архив песенных текстов, аккордов, табулатур и нот


Chumbawumba - Tubthumping - таба, видео

Регистрация Запомнить меня
Войти через:  Facebook Google Twitter Vk Yandex Mail.ru

Chumbawumba - Tubthumping - таба, видео

Печатать
Просмотров: 130
Chumbawumba - Tubthumping(solo)

E|-----------------------------17--|
B|--15-14-------15-14--------x-----|
G|--------14-11-------14---x-------|
D|-----------------------x---------|
A|---------------------------------|
E|---------------------------------|
           Sweep Picking --------|

E|-----------------------------------------------------------17--|
B|--15-15-------15-15—-15-15-------15-15—-15-15-------15-15------|
G|--------14-14--------------14-14--------------14-14------------|
D|---------------------------------------------------------------|
A|---------------------------------------------------------------|
E|---------------------------------------------------------------|

This is actually a sax solo, but it's a lot of fun to play it on the guitar this way. 
Добавлено: 24.02.2012
Вам также может быть интересно:
Другие материалы по этой песне:
  • Аккорды и текст

Страница создана 24.02.2012
http://primanota.ru/chumbawumba/tubthumping-chords.htm
Привет, Гость.
Предлагаем пройти революционный курс по гитаре.
Подарок от PrimaNota.Ru, забирай!