PrimaNota.ru - самый крупный в мире бесплатный архив песенных текстов, аккордов, табулатур и нот


Chumbawamba - The Bad Squire - таба, видео

Регистрация Запомнить меня
Войти через:  Facebook Google Twitter Vk Yandex Mail.ru

Chumbawamba - The Bad Squire - таба, видео

Печатать
Просмотров: 152
The Bad Squire

by Chumbawamba
Tuning: Standard E A D G B e
Capo 3. fret

Intro:
   am
e|---------------|
B|----1-1---1-1--|
G|---2-2---2-2---|
D|--------2------|
A|-0-------------|
E|---------------|

Part 1:
   am           G          am   G    am
e|------------------------------------------------------|
B|----1-1---1-1---0-0--0-0---1-1--0-0--1-1--1-1---------|
G|---2-2---2-2---0-0--0-0---2-2--0-0--2-2--2-2----------|
D|--------2----------0--------------------2-------------|
A|-0-----------------------0---------0------------------|
E|--------------3---------------3-----------------------|

Part 2:
   C          G          am         em
e|------------------------------------------------------|
B|---1-1--1-1---0-0--0-0—--1-1--1-1---0-0--0-0----------|
G|--0-0--0-0---0-0--0-0---2-2--2-2---0-0--0-0-----------|
D|------2----------0----------2----------2--------------|
A|-3---------------------0------------------------------|
E|------------3---------------------0-------------------|

Structure:
Intro:  x4
Part1:  x2
Part2:  x1
Part1:  x1
Intro:  x1

Part1:  x2
Part2:  x1 and so on

am                          G
The merry brown hares came a-leaping
am       G            am
Over the crest of the hill
am                             G
Where the clover and corn lay a-sleeping
am        G            am
Under the moonlight so still
C                      G
Leaping so late and so early
am                               em
'Till under their bite and their tread
am                               G
The swedes and the wheat and the barley
am               G            am
Lay cankered and trampled and dead

A poacher's poor widow sat sighing
On the side of the moss-patterned bank
Where under the gloom of the fir-woods
One acre of ground laying rank
She watched over barely grown clover
Where rabbit or hare never ran
For the ground that it all covered over
Hid the blood of a good murdered man

She thought of the shaded plantation
And the hares and her husband's own blood
And the voice of her own indignation
Rose up to the throne of her God
There's blood on your new foreign shrubs, Squire
There's blood on your pointer's cold feet
There's blood on the game that you sell Squire
And there's blood on the game that you eat

You have sold out the labouring man, Squire
Both body and soul for to shame
To pay for your seat in the House, Squire
And to pay for the feed of your game
You made him a poacher yourself, Squire
When you'd give not the work nor the meat
And your barley-fed hares robbed the garden
At our starving poor little one's feet

When packed into one tiny chamber
Man, mother and little ones lay
While the rain pattered in on our bride bed
And the walls barely held out the day
When we lay in the heat of the fever
On the mud and the clay of the floor
'Till you parted us all for three months, Squire
And we knocked at the working house door

So to kennels and liveried varlets
Where you starved your own daughter of bread
And worn out with liquor and harlots
See your heirs at your feet lying dead
When you follow them into your heaven
And your soul rots asleep in the grave
Then Squire, you will not be forgiven
By the free men you took as your slaves

That's how I play it..
Actually I think Chumbawamba don't uses a capo and plays barchords like this:

Intro:
   cm
e|---------------|
B|----4-4---4-4--|
G|---5-5---5-5---|
D|--------5------|
A|-3-------------|
E|---------------|

Part 1:
   cm           Bb         cm    Bb    cm
e|------------------------------------------------------|
B|----4-4---4-4---3-3--3-3---4-4---3-3---4-4---4-4------|
G|---5-5---5-5---3-3--3-3---5-5---3-3---5-5---5-5-------|
D|--------5----------3-----------------------5----------|
A|-3------------1----------3-----1-----3----------------|
E|------------------------------------------------------|

Part 2:
   D#         Bb         cm         gm
e|------------------------------------------------------|
B|---8-8--8-8---6-6--6-6—--4-4--4-4---3-3--3-3----------|
G|--8-8--8-8---7-7--7-7---5-5--5-5---3-3--3-3-----------|
D|------8---------------------5-------------------------|
A|-6---------------8-----3---------------5--------------|
E|------------6---------------------3-------------------|

But I think it's way easier with a capo on the third fret. So enjoy and have fun with 
this beautiful song…

Chords used:

   Am  G   C   em  cm  Bb  Bb  D#  gm
e|-0---3---0---0---3---1---6---6---3--|
B|-1---0---1---0---4--—3---6---8---3--|
G|-2---0---0---0---5---3---7---8---3--|
D|-2---0---2---2---5---3---8---8---5--|
A|-0---2---3---2---3---1---8---6---5--|
E|-0---3---0---0---x---x---6---x---3--|
Добавлено: 28.08.2013
Другие материалы по этой песне:
  • Аккорды и текст

Страница создана 28.08.2013
http://primanota.ru/chumbawamba/the-bad-squire-chords.htm
Привет, Гость.
Предлагаем пройти революционный курс по гитаре.
Подарок от PrimaNota.Ru, забирай!