PrimaNota.ru - самый крупный в мире бесплатный архив песенных текстов, аккордов, табулатур и нот


Chumbawamba - Be With You - таба, видео

Регистрация Запомнить меня
Войти через:  Facebook Google Twitter Vk Yandex Mail.ru

Chumbawamba - Be With You - таба, видео

Печатать
Просмотров: 107
Guitar 1:

Capo on the first fret.

Intro:
C F Am G

C                             F                   Am     G
The future glints like the moon on an old slate roof
And everything you say sounds like the truth
The things you did made half my dreams come true
And I wanted to be with you
And I wanted to be with you

Dm                            G
Sing your songs of what could be
Dm                                         G
Of all the things you brought back home to me

C                     F                   Am     G
And I wonder what the papers are going to say
Another actress, another war, another day
But everything's changed, the world woke up today
And I wanted to be with you
And I wanted to be with you

Dm                             G
Sing your songs of what could be
Dm                                    G
Draw the world for those who couldn't see


Guitar 2:

-------------------------------------------------------|
--6--------------------6-----------6--9--6--------6----|
-----------6--8-----8-----6-----6--------------6-----8-|
-----6--8--------7-----------8--------------6----------|
-------------------------------------------------------|
-------------------------------------------------------|

------------------------------------------------------|
-------6------------6-----------6--9---------7--6-----|
----8------8-----8-----6-----6------------8--------8--|
-7------------7-----------8-----------10--------------|
------------------------------------------------------|
------------------------------------------------------|
Добавлено: 24.06.2013
Другие материалы по этой песне:
  • Аккорды и текст

Страница создана 24.06.2013
http://primanota.ru/chumbawamba/be-with-you-chords.htm
Привет, Гость.
Предлагаем пройти революционный курс по гитаре.
Подарок от PrimaNota.Ru, забирай!