PrimaNota.ru - самый крупный в мире бесплатный архив песенных текстов, аккордов, табулатур и нот


Chucks Nation - The Awakening - таба, видео

Регистрация Запомнить меня
Войти через:  Facebook Google Twitter Vk Yandex Mail.ru

Chucks Nation - The Awakening - таба, видео

Печатать
Просмотров: 111
E Standard tuning (EADGBE)

Intro
e--------------------------------------------------------------------------------------------|
B--------------------------------------------------------------------------------------------|
G---9------9-9-9-9-9-9-9-9-9-9-9-9-9-9-9-9-9-9-9-9-9-9-9-9-9-9-9-9-9-9-9-9--9-9--5-5--7-7--9-|
D---9------9-9-9-9-9-9-9-9-9-9-9-9-9-9-9-9-9-9-9-9-9-9-9-9-9-9-9-9-9-9-9-9--9-9--5-5--7-7--9-|
A---7------7-7-7-7-7-7-7-7-7-7-7-7-7-7-7-7-7-7-7-7-7-7-7-7-7-7-7-7-7-7-7-7--7-7--3-3--5-5--7-|
E--------------------------------------------------------------------------------------------|

Verse
e-----------------------------------------------------------------|
B-----------------------------------------------------------------|
G-9-9-9-9-9-9-9-9-9-9-9-9-9-9-9-9-9-9-9-9-9-9-9-9-9-9-9-9-9-9-9-9-|
D-9-9-9-9-9-9-9-9-9-9-9-9-9-9-9-9-9-9-9-9-9-9-9-9-9-9-9-9-9-9-9-9-|
A-7-7-7-7-7-7-7-7-7-7-7-7-7-7-7-7-7-7-7-7-7-7-7-7-7-7-7-7-7-7-7-7-|
E-----------------------------------------------------------------|

e-----------------------------------------------------------------|
B-----------------------------------------------------------------|
G-5-5-5-5-5-5-5-5-5-5-5-5-5-5-5-5-5-5-5-5-5-5-5-5-5-5-5-5-5-5-5-5-|
D-5-5-5-5-5-5-5-5-5-5-5-5-5-5-5-5-5-5-5-5-5-5-5-5-5-5-5-5-5-5-5-5-|
A-3-3-3-3-3-3-3-3-3-3-3-3-3-3-3-3-3-3-3-3-3-3-3-3-3-3-3-3-3-3-3-3-|
E-----------------------------------------------------------------|

e-----------------------------------------------------------------|
B-----------------------------------------------------------------|
G-7-7-7-7-7-7-7-7-7-7-7-7-7-7-7-7-7-7-7-7-7-7-7-7-7-7-7-7-7-7-7-7-|
D-7-7-7-7-7-7-7-7-7-7-7-7-7-7-7-7-7-7-7-7-7-7-7-7-7-7-7-7-7-7-7-7-|
A-5-5-5-5-5-5-5-5-5-5-5-5-5-5-5-5-5-5-5-5-5-5-5-5-5-5-5-5-5-5-5-5-|
E-----------------------------------------------------------------|

e------------------------------|
B------------------------------|
G-9-9------5-5------7-7------9-|
D-9-9------5-5------7-7------9-|
A-7-7------3-3------5-5------7-|
E------------------------------|

Verse 2
    P.M   P.M   P.M   P.M
e---------------------------------|
B---------------------------------|
G-9-----9-----9-----9-----9-9-9-9-|
D-9-----9-----9-----9-----9-9-9-9-|  
A-7-7-7-7-7-7-7-7-7-7-7-7-7-7-7-7-|
E---------------------------------|
    P.M   P.M   P.M   P.M
e---------------------------------|
B---------------------------------|
G-5-----5-----5-----5-----5-5-5-5-|
D-5-----5-----5-----5-----5-5-5-5-|   
A-3-3-3-3-3-3-3-3-3-3-3-3-3-3-3-3-|   
E---------------------------------|   
                                      
    P.M   P.M   P.M   P.M             
e---------------------------------|
B---------------------------------|
G-7-----7-----7-----7-----7-7-7-7-|
D-7-----7-----7-----7-----7-7-7-7-|
A-5-5-5-5-5-5-5-5-5-5-5-5-5-5-5-5-|
E---------------------------------|

    P.M   P.M   P.M   P.M
e---------------------------------|
B---------------------------------|
G-9-----9-----9-----9-----9-9-9-9-|
D-9-----9-----9-----9-----9-9-9-9-|  
A-7-7-7-7-7-7-7-7-7-7-7-7-7-7-7-7-|
E---------------------------------|

    P.M   P.M   P.M   P.M
e---------------------------------|
B---------------------------------|
G-9-----9-----9-----9-----9-9-9-9-|
D-9-----9-----9-----9-----9-9-9-9-|  
A-7-7-7-7-7-7-7-7-7-7-7-7-7-7-7-7-|
E---------------------------------|
    P.M   P.M   P.M   P.M
e---------------------------------|
B---------------------------------|
G-5-----5-----5-----5-----5-5-5-5-|
D-5-----5-----5-----5-----5-5-5-5-|   
A-3-3-3-3-3-3-3-3-3-3-3-3-3-3-3-3-|   
E---------------------------------|   
                                      
    P.M   P.M   P.M   P.M             
e---------------------------------|
B---------------------------------|
G-7-----7-----7-----7-----7-7-7-7-|
D-7-----7-----7-----7-----7-7-7-7-|
A-5-5-5-5-5-5-5-5-5-5-5-5-5-5-5-5-|
E---------------------------------|

    P.M   P.M   P.M   P.M
e---------------------------------|
B---------------------------------|
G-9-----9-----9-----9-----9-9-9-9-|
D-9-----9-----9-----9-----9-9-9-9-|  
A-7-7-7-7-7-7-7-7-7-7-7-7-7-7-7-7-|
E---------------------------------|

e-----------------------------------------------------------------|
B-----------------------------------------------------------------|
G-9-9-9-9-9-9-9-9-9-9-9-9-9-9-9-9-9-9-9-9-9-9-9-9-9-9-9-9-9-9-9-9-|
D-9-9-9-9-9-9-9-9-9-9-9-9-9-9-9-9-9-9-9-9-9-9-9-9-9-9-9-9-9-9-9-9-|
A-7-7-7-7-7-7-7-7-7-7-7-7-7-7-7-7-7-7-7-7-7-7-7-7-7-7-7-7-7-7-7-7-|
E-----------------------------------------------------------------|

e-----------------------------------------------------------------|
B-----------------------------------------------------------------|
G-5-5-5-5-5-5-5-5-5-5-5-5-5-5-5-5-5-5-5-5-5-5-5-5-5-5-5-5-5-5-5-5-|
D-5-5-5-5-5-5-5-5-5-5-5-5-5-5-5-5-5-5-5-5-5-5-5-5-5-5-5-5-5-5-5-5-|
A-3-3-3-3-3-3-3-3-3-3-3-3-3-3-3-3-3-3-3-3-3-3-3-3-3-3-3-3-3-3-3-3-|
E-----------------------------------------------------------------|

e-----------------------------------------------------------------|
B-----------------------------------------------------------------|
G-7-7-7-7-7-7-7-7-7-7-7-7-7-7-7-7-7-7-7-7-7-7-7-7-7-7-7-7-7-7-7-7-|
D-7-7-7-7-7-7-7-7-7-7-7-7-7-7-7-7-7-7-7-7-7-7-7-7-7-7-7-7-7-7-7-7-|
A-5-5-5-5-5-5-5-5-5-5-5-5-5-5-5-5-5-5-5-5-5-5-5-5-5-5-5-5-5-5-5-5-|
E-----------------------------------------------------------------|

e-----------------------------------------------------------------|
B-----------------------------------------------------------------|
G-7-7-7-7-7-7-7-7-7-7-7-7-7-7-7-7-7-7-7-7-7-7-7-7-7-7-7-7-7-7-7-7-|
D-7-7-7-7-7-7-7-7-7-7-7-7-7-7-7-7-7-7-7-7-7-7-7-7-7-7-7-7-7-7-7-7-|
A-5-5-5-5-5-5-5-5-5-5-5-5-5-5-5-5-5-5-5-5-5-5-5-5-5-5-5-5-5-5-5-5-|
E-----------------------------------------------------------------|

 .....P.M....
e---------------|
B---------------|
G-9-7-5-4-------|
D-9-7-5-4-5-4-2-|
A-7-5-3-2-5-4-2-|
E---------3-2-0-|

e-----------|
B-----------|
G-9---5---7-|
D-9---5---7-|
A-7---3---5-|
E-----------|

 .....P.M......  .....P.M......  .....P.M......  .....P.M...... 
e-----------------------------------------------------------------|
B-----------------------------------------------------------------|
G---------------9---------------4---------------5---------------7-|
D---------------9---------------4---------------5---------------7-|  X2
A-7-7-7-7-7-7-7-7-2-2-2-2-2-2-2-2-3-3-3-3-3-3-3-3-5-5-5-5-5-5-5-5-|
E-----------------------------------------------------------------|

e-----------------------------------------------------------------|
B-----------------------------------------------------------------|
G-9-9-9-9-9-9-9-9-5-5-5-5-5-5-5-5-7-7-7-7-7-7-7-7-9-9-9-9-9-9-9-9-|
D-9-9-9-9-9-9-9-9-5-5-5-5-5-5-5-5-7-7-7-7-7-7-7-7-9-9-9-9-9-9-9-9-|  X6
A-7-7-7-7-7-7-7-7-3-3-3-3-3-3-3-3-5-5-5-5-5-5-5-5-7-7-7-7-7-7-7-7-|
E-----------------------------------------------------------------|

e-----------------------------------------------------------------------------------|
B-----------------------------------------------------------------------------------|
G-9-9-9-9-9-9-9-9-9-9-9-9-9-9-9-9-9-9-9-9-9-9-9-9-9-9-9-9-9-9-9-9-9-9-9-9-9-9-9-9--9|
D-9-9-9-9-9-9-9-9-9-9-9-9-9-9-9-9-9-9-9-9-9-9-9-9-9-9-9-9-9-9-9-9-9-9-9-9-9-9-9-9--9| 
A-7-7-7-7-7-7-7-7-7-7-7-7-7-7-7-7-7-7-7-7-7-7-7-7-7-7-7-7-7-7-7-7-7-7-7-7-7-7-7-7--7|
E-----------------------------------------------------------------------------------|

Добавлено: 31.10.2015
Другие материалы по этой песне:
  • Аккорды и текст

Страница создана 31.10.2015
http://primanota.ru/chucks-nation/awakening-chords.htm
Привет, Гость.
Предлагаем пройти революционный курс по гитаре.
Подарок от PrimaNota.Ru, забирай!