PrimaNota.ru - самый крупный в мире бесплатный архив песенных текстов, аккордов, табулатур и нот


Chuck Prophet - Ford Econoline - аккорды и текст, видео

Регистрация Запомнить меня
Войти через:  Facebook Google Twitter Vk Yandex Mail.ru

Chuck Prophet - Ford Econoline - аккорды и текст, видео

Печатать
Просмотров: 63
Уроки эстрадного вокала в Санкт-Петербурге
Ford Econoline
Chuck Prophet
A                                      A
She pulled over said "climb on in"... I did what she said
A                                     A 
She turned the music up real loud... it was the Talking Heads
D                                                                      A
Didn't matter where we was going... made no difference to me at the time
E                                       D
Takes me back when I hear that song... makes me feel warm inside, 
NC             A
Ford Econoline!

riff
e|--x--x-x-x--x-x-x--x-x-x-x-x-x--|
B|--2--2-2-2--2-2-2--2-2-2-2-2-2--|
G|--2--2-2-2--2-2-2--2-2-2-2-2-2--|
D|--2--2-4-2--2-4-2--2-4-2-2-2-4--|
A|--0--0-0-0--0-0-0--0-0-0-5-0-0--|
E|--------------------------------|

A
Ever since the beginning of the world... the beginning of time
A
Somebody said that the road was his... somebody said "No, it's mine"
D
Some folks are born 'neath the sign of the road... 
                                       A
Close enough to turn and leave it all behind
E                                           D
Fall together like the rock of Gibraltar... guitars and drums inside
NC           A
Ford Econoline! (Ford Econoline!), (Ford Econoline!)

D C F C A   D C F C A  A  

A
Criss-crossed the country in two-tone job... it was 1985
A
Mile after mile we was burning oil... we couldn't keep it alive
D                                                                      A
Laid out flatter than a Chinese rug... when she went her way, I went mine
E                                       D
All these memories like dirty plates stacked up in the sink of time
NC           A
Ford Econoline! Ford Econoline! Ford Econoline! Ford Econoline!

E G A B D E    E G A B D E    E    E G A B D E    E G A B D E  E
Let's go

   E          G        A       B          D             E    
e|------------------------------------------------------------------|x2
B|------------------------------------------------------------------|
G|------------------------------------------------------------------|
D|------------------------------------------------------------------|
A|--------2-------2-5------4-7------6-9----------9-12---------11-14-|
E|-0-0-0-4---3-3-3----5-5-5----7-7-7-----10-10-10-----12-12-12------|

e|----------------------0~------------------|x2
B|----------------------0~------------------|
G|----------------------1~-2b4b4b4b4b4r2-0--|
D|----------------------2~----------------2-|
A|-----2---2-5-----4-7--2~------------------|
E|-0-4----3-----5-------0~------------------|

e|------------------------------------------------------------------||x2|0~|
B|------------------------------------------------------------------||  |0~|
G|------------------------------------------------------------------||  |1~|
D|------------------------------------------------------------------||  |2~|
A|--------2-------2-5------4-7------6-9----------9-12---------11-14-||  |2~|
E|-0-0-0-4---3-3-3----5-5-5----7-7-7-----10-10-10-----12-12-12------||  |0~|

Добавлено: 02.05.2016
Другие материалы по этой песне:
  • Аккорды и текст

Страница создана 02.05.2016
http://primanota.ru/chuck-prophet/ford-econoline-chords.htm
Привет, Гость.
Предлагаем пройти революционный курс по гитаре.
Подарок от PrimaNota.Ru, забирай!