PrimaNota.ru - самый крупный в мире бесплатный архив песенных текстов, аккордов, табулатур и нот


Chuck Prophet - Countrified Inner City Technological Man - аккорды и текст, видео

Регистрация Запомнить меня
Войти через:  Facebook Google Twitter Vk Yandex Mail.ru

Chuck Prophet - Countrified Inner City Technological Man - аккорды и текст, видео

Печатать
Просмотров: 164
Уроки эстрадного вокала в Санкт-Петербурге
Countrified Inner City Technological Man
Chuck Prophet
Drums - Count in 1/2/3/4 | 1st bar drums only | 2nd bar drums only  |

Bass tab starts on
  3rd bar            4th bar            5th bar          6th bar continues to 10th bar
G|------------------|------------------|-----------------|-----------------|
D|----------0-------|----------0-------|---------0-------|---------0-------|
A|-2-2--0-2--2-0-1-2|-2-2--0-2--2-0-1-2|2-2--0-2--2-0-1-2|2-2--0-2--2-0-1-2|
E|-----2------2-----|-----2------2-----|----2------2-----|----2------2-----|

  11th bar           12th bar
G|------------------|-----------------------------------------|
D|------------------|-----------------------------------------|
A|2-2---------------|-2-2-2-2-2-2-2-2-2-2-2-2-2-2-2-2-2-2-2-2-|
E|--------2-2-------|-----------------------------------------|

Guitar tab (1st guitar plays the chords, 2nd guitar plays lead)starts on
  5th bar             6th bar             7th bar             8th bar
  E B                 E B                 E B                 E B
e|7-7----------------|7-7----------------|7-7----------------|7-7----------------|
B|9-7----------------|9-7----------------|9-7----------------|9-7----------------|
G|9-8-------7--------|9-8-------7--------|9-8-------7--------|9-8-------7--------|
D|9-9---7-9---9---7-8|9-9---7-9---9---7-8|9-9---7-9---9---7-8|9-9---7-9---9---7-8|
A|7-9-9---------9----|7-9-9---------9----|7-9-9---------9----|7-9-9---------9----|
E|7-7----------------|7-7----------------|7-7----------------|7-7----------------|
                                          Countrified         Inner City

  9th bar            10th bar            11th bar                           12th bar
  E B                 E B                 B      B     B   F#    F#    F#      B
e|7-7----------------|7-7----------------|7------7-----7----2----2-----2----|--7--|
B|9-7----------------|9-7----------------|7------7-----7----2----2-----2----|--7--|
G|9-8-------7--------|9-8-------7--------|8------8-----8----3----3-----3----|--8--|
D|9-9---7-9---9---7-8|9-9---7-9---9---7-8|9------9-----9----4----4-----4----|--9--|
A|7-9-9---------9----|7-9-9---------9----|9------9-----9----4----4-----4----|--9--|
E|7-7----------------|7-7----------------|7------7-----7----2----2-----2----|--7--|
  Countrified         Inner City          Countrified Inner City Technological Man

  12th bar (2nd guitar)
e|-----9---7--|
B|------------|
G|-7/9---7----|
D|------------|
A|------------|
E|------------|



E B                  E B             
Countrified          Inner City
E B                  E B             
Countrified          Inner City
B                 F#                 B
Countrified Inner City Technological Man

A       E           B           A               E         B
I don't want your surveillance nothing here I want to re-live
A                 E           B       A               E      B
I don't want to look into the camera knowing how it's gonna end
          A              E      B
Already knowing how it's gonna end

    A                E                B
And I don't want to hear no lonesome whistle 
A                E         B 
I don't want to hear that sound
A        E        B 
I can't tell one day from the other 
          A             E         B
Still I wonder where we are right now
        A                 E                 B 
I can't help but wonder where we are right now

       E B           E B             
I'm a Countrified    Inner City
E B                  E B             
Countrified          Inner City
B                      F#            B
Countrified Inner City Technological Man

1:43
   F#                   F#                  F#                    F#                 A         
e|---------------------|-------------------|---------------------|--------------------|
B|---------------------|-------------------|---------------------|--------------------|
G|-----------2---------|----------2--------|----------2----------|--------------------|
D|-4-4---2-3---4--2-3-4|4-----2-3---4---2--|4-4---2-3---4---2-3-4|4-repeatedly-4-5-6-7|
A|-----4--------4------|----4---------4---4|----4---------4------|--------------------|
E|---------------------|--2----------------|---------------------|--------------------|
                  Countrified!

A           E            B      A             E   B
You got to stand on the corner shouting in a megaphone
A              E              B                A          E      B
Don't want to hear about the power of Jesus choking on a payday loan
A             E            B          A       E          B
Well you can follow your heart babe, you can follow your nose
A                 E                    B
They're going to tell you that they're open all night
              A                      E     B
There's only one place here that's never closed  
              A             E      B
Give me a holler cos' we're never closed  


       E B           E B             
I'm a Countrified    Inner City
E B                  E B             
Countrified          Inner City
B                      F#            B
Countrified Inner City Technological Man
A    E    B   B (Slide guitar)
Alright
 
D                     B  
Ooooh ooooh oooh (repeat to fade)
Добавлено: 06.04.2016
Другие материалы по этой песне:
  • Аккорды и текст

Страница создана 06.04.2016
http://primanota.ru/chuck-prophet/countrified-inner-city-technological-man-chords.htm
Привет, Гость.
Предлагаем пройти революционный курс по гитаре.
Подарок от PrimaNota.Ru, забирай!