PrimaNota.ru - самый крупный в мире бесплатный архив песенных текстов, аккордов, табулатур и нот


Chuck Berry - Sweet Little Rock And Roller - текст песни, таба, видео

Регистрация Запомнить меня
Войти через:  Facebook Google Twitter Vk Yandex Mail.ru

Chuck Berry - Sweet Little Rock And Roller - текст песни, таба, видео

Печатать
Просмотров: 281
e|--------------3-3-3-3-3-3-3-3-3--------------------------------------------|
B|--------3-5---3-3-3-3-3-3-3-3-3--6-5-3-------------------------------------|
G|----/4---------------------------6-5-3-----4-4-4-4-------------------------|
D|-------------------------------------------5-5-5-5-------------------------|
A|---------------------------------------------------------------------------|
E|---------------------------------------------------------------------------|
(verse)


   nine years old an sweet as she can be
e|---------------------------------------------------------------------------|
B|---------------------------------------------------------------------------|
G|---------------------------------------------------------------------------|
D|-----------------5-5-5-5-5-5-5-5-5-5-5-5-----------------------------------|
A|-5-5-5-5-5-5-5-5-3-3-3-3-3-3-3-3-3-3-3-3-5-5-5-5-5-5-5-5-5-5-5-5-----------|
E|-3-3-3-3-3-3-3-3-------------------------3-3-3-3-3-3-3-3-5-5-5-5-----------|

  all dressed up like a downtown Christmas tree

e|---------------------------------------------------------------------------|
B|---------------------------------------------------------------------------|
G|---------------------------------------------------------------------------|
D|-----5-5-5-5-5-5-5-5-5-5-5-5-5-5-5-5-5-5-5-5-5-5---------------------------|
A|-5-5-3-3-3-3-3-3-3-3-3-3-3-3-3-3-3-3-3-3-3-3-3-3-5-5-5-5-5-5-5-5-5-5-5-5---|
E|-3-3---------------------------------------------3-3-3-3-3-3-3-3-3-3-3-3---|


   dancin and hummin a rock roll melody                         shes the 
e|---------------------------------------------------------------------------|
B|---------------------------------------------------------------------------|
G|---------------------------------------------------------------------------|
D|-7-7-7-7-7-7-7-7-7-7-7-7-5-5-5-5-5-5-5-5-----------------------------------|
A|-5-5-5-5-5-5-5-5-5-5-5-5-3-3-3-3-3-3-3-3---5-5-7-7-5-5-7-5-5-5-7-7-5-5-7-5-|
E|-------------------------------------------3-3-3-3-3-3-3-3-3-3-3-3-3-3-3-3-|


  daughter of a well respected man  
e|---3-------3------3------3--------3------3---------------------------------|
B|---3-------3------5------5--------3------3---------------------------------|
G|---4-------4------5------5--------4------4---------------------------------|
D|---------------------------------------------------------------------------|
A|---------------------------------------------------------------------------|
E|---------------------------------------------------------------------------|


       who taught her how to judge and understand 
e|-3-3-------------3---3----------3----3------------3-----3------------------|
B|-3-3-------------5---5----------5----5------------3-----3------------------|
G|-4-4-------------5---5----------5----5------------4-----4------------------|
D|---------------------------------------------------------------------------|
A|---------------------------------------------------------------------------|
E|---------------------------------------------------------------------------|


        since she became a rock n roll music fan 
e|--3------3------5-----5--------3-----3---------3----3------------10--------|
B|--3------3------7-----7--------5-----5---------3----3-----11H12------------|
G|--4------4------7-----7--------5-----5---------4----4----------------------|
D|---------------------------------------------------------------------------|
A|---------------------------------------------------------------------------|
E|---------------------------------------------------------------------------|


(chorus)                 sweet little rock and roller        
e|-----------------------------10----------10-----------10-------------10----|
B|-----11H12-----------------------11H12---------11H12---------11H12---------|
G|------------12-------------------------------------------------------------|
D|---------------------------------------------------------------------------|
A|---------------------------------------------------------------------------|
E|---------------------------------------------------------------------------|


             sweet little rock and roller
e|-----------10---------10----------10----------10---------------------------|
B|---11H12--------11H12------11H12-------11H12-------11H12----12B------------|
G|---------------------------------------------------------------------------|
D|---------------------------------------------------------------------------|
A|---------------------------------------------------------------------------|
E|---------------------------------------------------------------------------|


   her daddy dont have to scold her                         her
e|-----------------10--------10---------12----------12-----------------------|
B|----------11H12------11H12-----11H12--------11H12--------11H12-------------|
G|---------------------------------------------------------------------------|
D|---------------------------------------------------------------------------|
A|---------------------------------------------------------------------------|
E|---------------------------------------------------------------------------|


  partner caint hardly hold her                            she never
e|---------------10--------10----------10------------10----------------------|
B|-------------------11H12------11H12---------11H12--------------------------|
G|---------------------------------------------------------------------------|
D|---------------------------------------------------------------------------|
A|---------------------------------------------------------------------------|
E|---------------------------------------------------------------------------|


    gets  any  older
e|-----------10------------10----------10------------------------------------|
B|---11H12----------11H12-------11H12-----------11H12------------------------|
G|---------------------------------------------------------------------------|
D|---------------------------------------------------------------------------|
A|---------------------------------------------------------------------------|
E|---------------------------------------------------------------------------|


   sweet little rock and roller
e|-------------10---------10---------10----------10--------------------------|
B|------11H12-------11H12------11H12-------11H12-----------------------------|
G|---------------------------------------------------------------------------|
D|---------------------------------------------------------------------------|
A|---------------------------------------------------------------------------|
E|---------------------------------------------------------------------------|

(guitar solo)

e|-----------------------------------------3-----------------8---------------|
B|----------------3----------5----6----------------10------------------------|
G|-----------4---------------------------------------------------------------|
D|-------5-------------------------------------------------------------------|
A|---------------------------------------------------------------------------|
E|---------------------------------------------------------------------------|



e|----------10----------10------------10-------------------------------------|
B|---12B----------12B----------12B-----------12------12----------------------|
G|---------------------------------------------------------------------------|
D|---------------------------------------------------------------------------|
A|---------------------------------------------------------------------------|
E|---------------------------------------------------------------------------|



e|---10-------10-------10-------10-------10-------10-------10----------------|
B|---11H12-------------11H12-------------11H12-------------11H12-----11B-----|
G|---------------------------------------------------------------------------|
D|---------------------------------------------------------------------------|
A|---------------------------------------------------------------------------|
E|---------------------------------------------------------------------------|


e|------------------------------------------------3--------6H7----3----------|
B|----3------------------------------------3--------------------------3------|
G|---------5--------3----------3-----5-------------------------------------3-|
D|------------------------5--------------------------------------------------|
A|---------------------------------------------------------------------------|
E|---------------------------------------------------------------------------|


e|-------------------------------------------------3-----3-------------------|
B|----------------------------------------------3--------3---------3---------|
G|------5-----5-------3H4-----------------4-------------------5----3H4-------|
D|---------------------------5-----5--------------------------------------5--|
A|---------------------------------------------------------------------------|
E|---------------------------------------------------------------------------|


e|--------------------------------3--------------3-------------3-------------|
B|------------------------5H6--------------5H6-----------5H6-----------------|
G|-----4---4---4----------5H7--------------5H7-----------5H7-----------------|
D|-----5---5---5-------------------------------------------------------------|
A|---------------------------------------------------------------------------|
E|---------------------------------------------------------------------------|


e|------------3-----------3--------3------------------------3----------------|
B|-----5H6----------5H6-------5H6---------5-----3-----------3-------5----3---|
G|-----5H7----------5H7-------5H7---------5-----3H4-----------------5----4---|
D|----------------------------------------------------5----------------------|
A|---------------------------------------------------------------------------|
E|---------------------------------------------------------------------------|


                              should have seen (second verse and chorus)
e|---------------------------------------------------------------------------|
B|---------------------------------------------------------------------------|
G|----4-----4---------3----3-------------------------------------------------|
D|----5-----5---------4----4-------------------------------------------------|
A|--------------------5----5-------------------------------------------------|
E|---------------------------------------------------------------------------|


guitar one- Chuck Berry plays various backup licks and rythmic chop chords
guitar two- Bo Diddley plays the standard berry boogie woogie rhythm through
out
Добавлено: 05.07.2012
Другие материалы по этой песне:

Страница создана 11.03.2012
http://primanota.ru/chuck-berry/sweet-little-rock-and-roller-chords.htm
Привет, Гость.
Предлагаем пройти революционный курс по гитаре.
Подарок от PrimaNota.Ru, забирай!