PrimaNota.ru - самый крупный в мире бесплатный архив песенных текстов, аккордов, табулатур и нот


Chuck Berry - Johnny B Good - аккорды и текст, таба, видео

Регистрация Запомнить меня
Войти через:  Facebook Google Twitter Vk Yandex Mail.ru

Chuck Berry - Johnny B Good - аккорды и текст, таба, видео

Печатать
Просмотров: 2453
Уроки эстрадного вокала в Санкт-Петербурге
Johnny B Good
Chuck Berry
		   This is the tab for johnny be Goood of Chuck Berry.  I think it's very good.

Intro:

|--------5s6-6-6-5s6-6-6-5s6-6-6----------------|--------------------------|
|----6-8-5s6-6-6-5s6-6-6-5s6-6-6-9-8-6----------|--------------------------|
|--7-----------------------------------6h7------|-6s7-7-7-6s7-7-7-6s7------|
|-------------------------------------------8-8-|-7s8-8-8-7s8-8-8-7s8------|
|-----------------------------------------------|--------------------------|
|-----------------------------------------------|--------------------------|

                          10 times                                   |rake |
|-----------------------||---------||-------6-------8-6------------------6-|
|------6-8-6------------||------6--||---------9-8-6-----9-8-6----------6---|
|--5s7-7-7-7-5s7-5-3----||-8b10----||-8b10--------------------8--6h7-7-----|
|---------------------5-||---------||--------------------------------------|
|-----------------------||---------||--------------------------------------|
|-----------------------||---------||---------------- ---------------------|

|------------------------------|
|--9-8-6------6------6---------|
|--------8b10---8b10---8-6h7---|
|----------------------------8-|
|------------------------------|
|------------------------------|

Verse:

riff A:                             riff B:
|---------------------------------||---------------------------------|
|---------------------------------||---------------------------------|
|---------------------------------||---------------------------------|
|---------------------------------||--8-8-10--8-8-10--8-8-10--8-8-10-|
|--8-8-10--8-8-10--8-8-10--8-8-10-||--6-6-6---6-6-6---6-6-6---6-6-6--|
|--6-6-6---6-6-6---6-6-6---6-6-6--||---------------------------------|

riff C:                                     riff D:
|-----------------------------------------||-4-4-4-6-|
|-----------------------------------------||-6-6-6-6-|
|-----------------------------------------||---------|
|--10-10-10--10-10-10--10-10-10--10-10-10-||---------|
|--8--8--8---8--8--8---8--8--8---8--8--8--||---------|
|-----------------------------------------||---------|


First Break:
e|------------------------|6--6--6--6--6-----------|6--6--6--6--6-----------|
b|------------------6--8--|6--6--6--6--6-----------|6--6--6--6--6-----------|
g|------------6-7---------|---------------8-6h7----|---------------8-6h7----|
d|------------------------|---------------------8--|---------------------8--|
a|------------------------|------------------------|------------------------|
e|------------------------|------------------------|------------------------|


e|6-----------6-----------|6--r--6--r--6--r--6--r--|---------6--------8--6--|
b|6-----------6-----------|6--r--6--r--6--r--6--r--|------------9--r--------|
g|---8-6h7-------8-6h7----|------------------------|r--b8-r-----------------|
d|---------8-----------8--|------------------------|------------------------|
a|------------------------|------------------------|------------------------|
e|------------------------|------------------------|------------------------|
                               * r -rest

e|------6-----------6--6--|6-----------6--6--6--6--|6-----------6-----------|
b|9--8--6-----------6--6--|6--8--6-----6--6--6--6--|6--8--6-----6--8--6-----|
g|---------8--6-h7--7-----|---------7--------------|---------7-----------7--|
d|------------------------|------------------------|------------------------|
a|------------------------|------------------------|------------------------|
e|------------------------|------------------------|------------------------|


e|6--6--6--6--6-----------|------------------------|------------------------|
b|6--6--6--6--6-----------|8-b9--8-b9--8-b9--8-b9--|8-----------8--6--------|
g|---------------8-6h7----|8-b10-8-b10-8-b10-8-b10-|8--6--------8-6h7-------|
d|---------------------8--|------------------------|------8--r---------8--r-|
a|------------------------|------------------------|------------------------|
e|------------------------|------------------------|------------------------|

*****************************************************************************

riff A
Deep down in Louisiana, close to New Orleans,
riff A
Way back up in the woods among the evergreens,
riff B
There stood a log cabin made of earth and wood
riff A
Where lived a country boy named Johnny B Goode
riff C
Who never ever learned to read or write so well,
riff A
But he could play the guitar just like a ringin' a bell.


CHORUS:

                           riff D
Go! Go! Go, Johnny, go! Go!
                   riff D
Go, Johnny, go! Go!
                   riff D
Go, Johnny, go! Go!
                   riff D
Go, Johnny, go! Go!       Johnny B Goode

riff A
He used to carry his guitar in a gunny sack,
riff A
Go sit beneath the tree by the railroad track.
riff B
Old engineers would see him sittin' in the shade,
riff A
Strummin' with the rhythm that the drivers made.
riff C
When people passed him by they would stop and say,
riff A
'oh, my but that little country boy could play'

CHORUS

riff A
His mother told him, 'someday you will be a man,
riff A
You will be the leader of a big ol' band.
riff B
Many people comin' from miles around
riff A
Will hear you play your music when the sun go down.
riff C
Maybe someday your name'll be in lights,
riff A
Sayin' 'Johnny B Goode tonight''

CHORUS     
Добавлено: 22.09.2013
Другие материалы по этой песне:
  • Аккорды и текст

Страница создана 07.04.2012
http://primanota.ru/chuck-berry/johnny-b-good-chords.htm
Привет, Гость.
Предлагаем пройти революционный курс по гитаре.
Подарок от PrimaNota.Ru, забирай!