PrimaNota.ru - самый крупный в мире бесплатный архив песенных текстов, аккордов, табулатур и нот


Chuck Berry - It Dont Take But A Few Minutes - таба, видео

Регистрация Запомнить меня
Войти через:  Facebook Google Twitter Vk Yandex Mail.ru

Chuck Berry - It Dont Take But A Few Minutes - таба, видео

Печатать
Просмотров: 115
Here's the version Chuck plays with Eric Clapton on the rehearsals for his 60th
Birthday Concert in 1986 - Have Fun !
In the film they call it  "understand each other"


It don't take but a few minutes - Chuck Berry

D
When I see those big brown eyes
                  A
is when I take my cue
                        A(tack)
It don't take me but a few minutes
    A               D
to get a message through
I talked to you, and you talked to me
and we talked to one another
It don't take us but a few minutes
to understand each other 

Riff:
e|----------------------------------------------|
B|--10-10-----10-10-10------10-10--10-12-10-8---|
G|--------11-----------11-----------------------|
D|--12-12-----12-12-12------12-12--12-12-12-9---|
A|--------12-----------12-----------------------|
E|----------------------------------------------|

e|----------------------------------------------|
B|-8-8---5---8-8-8--5---10-8-7--5--3------------|
G|----------------------------------------------|
D|-9-9---5---9-9-9--5---11-9-7--5--4------------|
A|----------------------------------------------|
E|----------------------------------------------|

If I was twenty-three years old
and you were twenty-two
I bet no one would try to run
our lives the way they do
We take a chance and try romance,
be true to one another
It don't take us but a few minutes,
when we want each other 

If I was in San Diego
and you were in Portland, Maine
I'd fly to you lock, stock 
and bone in hail and pouring rain
Over the mountains, through the valleys,
coming home to each other
It don't take us but a few minutes
to get to one another 

You would write a love song
and play on my guitar
And if you should, in Hollywood,
become a movie star
Would you let your heart forget,
I loved you and you only
It don't take but a few minutes,
when you're feeling lonely
Добавлено: 11.05.2012
Другие материалы по этой песне:
  • Аккорды и текст

Страница создана 11.05.2012
http://primanota.ru/chuck-berry/it-dont-take-but-a-few-minutes-chords.htm
Привет, Гость.
Предлагаем пройти революционный курс по гитаре.
Подарок от PrimaNota.Ru, забирай!