PrimaNota.ru - самый крупный в мире бесплатный архив песенных текстов, аккордов, табулатур и нот


Chuck Berry - Dont Let Them Still It Away - аккорды и текст, таба, видео

Регистрация Запомнить меня
Войти через:  Facebook Google Twitter Vk Yandex Mail.ru

Chuck Berry - Dont Let Them Still It Away - аккорды и текст, таба, видео

Печатать
Просмотров: 174
Dont Let Them Still It Away
Chuck Berry
E|-------8-8-8-8-8-------------------|
B|-5s8s7-8-8-8-8-8--5s8s7--8-8-8-8-8-|
G|-------------------------9-9-9-9-9-|
D|-----------------------------------|
A|-----------------------------------|
E|-----------------------------------|
 
E|-------8-8-8-7s8-8-8-7s8-8-8-8-8----------|
B|-5s8s7-8-8-8-7s8-8-8-7s8-8-8-8-8-----9~~~-|
G|-------------------------------------9~~~-|
D|------------------------------------------|
A|------------------------------------------|
E|------------------------------------------|
Добавлено: 22.09.2013
Другие материалы по этой песне:
  • Аккорды и текст

Страница создана 27.04.2012
http://primanota.ru/chuck-berry/dont-let-them-still-it-away-chords.htm
Привет, Гость.
Предлагаем пройти революционный курс по гитаре.
Подарок от PrimaNota.Ru, забирай!