PrimaNota.ru - самый крупный в мире бесплатный архив песенных текстов, аккордов, табулатур и нот


Chthonic - Spell Of Setting Sun - текст песни, таба, видео

Регистрация Запомнить меня
Войти через:  Facebook Google Twitter Vk Yandex Mail.ru

Chthonic - Spell Of Setting Sun - текст песни, таба, видео

Печатать
Просмотров: 112
Уроки эстрадного вокала в Санкт-Петербурге
chthonic
spell of setting sun

c-f-a#-d#-g-c

*=palm mute

tabbed by-andherembrace



0:00
---------------------------------------------------|
-------0-----------0-----------0-----------0-------|
-----0---2-------0---2-------0---2-------0---2-----|
---4-------4---4-------4---4-------4---4-------4---|
-2-----------2-----------2-----------2-------------|
---------------------------------------------------|


------------------------0----------------------0---------|
---1---1---0----1---1--------1---1---0-----1--------1----|
-----2---2--------2---2--------2---2---------4----4------|
---------------------------------------------------------|
-3------------3------------3-------------3---------------|
---------------------------------------------------------|

0:14
---------------------------------------------------|
-------0-----------0-----------0-----------0-------|
-----0---2-------0---2-------0---2-------0---2-----|
---4-------4---4-------4---4-------4---4-------4---|
-2-----------2-----------2-----------2-------------|
---------------------------------------------------|


------------------------0----------------------0---------|
---1---1---0----1---1--------1---1---0-----1--------1----|
-----2---2--------2---2--------2---2---------4----4------|
---------------------------------------------------------|
-3------------3------------3-------------3---------------|
---------------------------------------------------------|


0:26
--------------------------------------------------------------------|
--------------------------------------------------------------------|
------*-*-*---****--*--*-*-*---****-*--*-*-*---****-*--*-*-*---****-|
----4-4-4-4-4-4444--4--4-4-4-4-4444-4--4-4-4-4-4444-4--4-4-4-4-4444-|
-\--2-2-2-2-2-2222--2--2-2-2-2-2222-2--2-2-2-2-2222-2--2-2-2-2-2222-|
-\------------------------------------------------------------------|


-------------------------------------------------------------------|
-------------------------------------------------------------------|
---*-*-*---****--*--*-*-*---****-*--*-*-*---****-*--*-*-*---****---|
-5-5-5-5-5-5555--5--5-5-5-5-5555-5--5-5-5-5-5555-5--5-5-5-5-5555---|
-3-3-3-3-3-3333--3--3-3-3-3-3333-3--3-3-3-3-3333-3--3-3-3-3-3333---|
-------------------------------------------------------------------|


--------------------------------------------------------------------|
--------------------------------------------------------------------|
------*-*-*---****--*--*-*-*---****-*--*-*-*---****-*--*-*-*---****-|
----4-4-4-4-4-4444--4--4-4-4-4-4444-4--4-4-4-4-4444-4--4-4-4-4-4444-|
----2-2-2-2-2-2222--2--2-2-2-2-2222-2--2-2-2-2-2222-2--2-2-2-2-2222-|
--------------------------------------------------------------------|


------------------------------------------------------------------|
------------------------------------------------------------------|
---*-*-*---****--*--*-*-*---****-*--*-*-*---****-*--*-*-*---------|
-5-5-5-5-5-5555--5--5-5-5-5-5555-5--5-5-5-5-5555-5--5-5-5-5-5-5---|
-3-3-3-3-3-3333--3--3-3-3-3-3333-3--3-3-3-3-3333-3--3-3-3-3-3-3---|
------------------------------------------------------------------|


0:52
R                               B
--------------------------------------------------------------------|
--------------------------------------------------------------------|
--------------------------------------------------------------------|
--------------------------------------------------------------------|
4-**********-4-*-5-**********-4-*-4-**********-4-*-5-**********-4-*-|
--2222222222---2---2222222222---2---2222222222---2---2222222222---2-|


--------------------------------------------------------------------|
--------------------------------------------------------------------|
--------------------------------------------------------------------|
--------------------------------------------------------------------|
4-**********-4-*-5-**********-4-*-5-**********-4-*-5-**********-5-*-|
--2222222222---2---2222222222---2---3333333333---3---5555555555---5-|


--------------------------------------------------------------------|
--------------------------------------------------------------------|
--------------------------------------------------------------------|
--------------------------------------------------------------------|
4-**********-4-*-5-**********-4-*-5-**********-4-*-5-**********-5-*-|
--2222222222---2---2222222222---2---3333333333---3---5555555555---5-|

1:07
--------------------------------------------------------------------|
--------------------------------------------------------------------|
--------------------------------------------------------------------|
--------------------------------------------------------------------|
4-***-*-***-4-*-5-***-*-***-4-*-5-***-*-***-4-*-5-***-*-***-5-*-----|
--222-2-222---2---222-2-222---2---333-3-333---3---555-5-555---5-----|


--------------------------------------------------------------------|
--------------------------------------------------------------------|
--------------------------------------------------------------------|
--------------------------------------------------------------------|
4-***-*-***-4-*-5-***-*-***-4-*-5-***-*-***-4-*-5-***-*-***-5-*-----|
--222-2-222---2---222-2-222---2---333-3-333---3---555-5-555---5-----|


1:17
-----------------------------------------------------------------|
-----------------------------------------------------------------|
-----------------------------------------------------------------|
44444444---------------------------------------------------------|
--------55554444------------------------4444----1111-------------|
----------------222233335555222233333333----5555----333322223333-|


-----------------------------------------------------------------|
-----------------------------------------------------------------|
-----------------------------------------------------------------|
44444444---------------------------------------------------------|
--------55554444------------------------4444----1111-------------|
----------------222233335555222233333333----5555----333322223333-|


1:28
---------------------------------------------------------------|
---------------------------------------------------------------|
---------------------------------------------------------------|
------------------------------7-************-6-****-6-****-----|
4-************-7-************-5-555555555555-4-4444-4-4444-7-6-|
2-222222222222-5-555555555555------------------------------5-4-|


-----------------------------------------------------------|
-----------------------------------------------------------|
-----------------------------------------------------------|
------------------------------7-************-6-****--------|
4-************-7-************-5-555555555555-4-4444--/-\---|
2-222222222222-5-555555555555------------------------/-\---|


1:38
-----------------------------------------------------|
-----------------------------------------------------|
-4-2-0-------4-2-0-------4-2-0-------4-2-0-----------|
-------5-4-2-------5-4-2--------5-4-2-------5-4-2----|
-----------------------------------------------------|
-----------------------------------------------------|


---------------------------------------------------|
---------------------------------------------------|
-5-4-2-2---2-5-4-2-4---4--7-5---4---------------5--|
---------4-----------7--------7---7-4-7-4-7-4-7----|
---------------------------------------------------|
---------------------------------------------------|



-----------------------------------------------------|
-----------------------------------------------------|
-4-2-0-------4-2-0-------4-2-0-------4-2-0-----------|
-------5-4-2-------5-4-2--------5-4-2-------5-4-2----|
-----------------------------------------------------|
-----------------------------------------------------|


---------------------------------------------------|
---------------------------------------------------|
-5-4-2-2---2-5-4-2-4---4--7-5---4---------------5--|
---------4-----------7--------7---7-4-7-4-7-4-7----|
---------------------------------------------------|
---------------------------------------------------|


1:54
---------------------------------------------------------------------|
---------------------------------------------------------------------|
---------------------------------------------------------------------|
---------------------------------------------------------------------|
******999999******101010101010******121212121212999999101010101010---|
000000------000000------------000000---------------------------------|


--------------------------------------------------|
--------------------------------------------------|
--------------------------------------------------|
---------------------------*--*--*-----*-*-*------|
999999999999101010101010-\10-10-10-10--9-9-9-9----|
-------------------------\-8--8--8--8\-7-7-7-7\---|


2:02
-------------------------------------------------------------------|
-------------------------------------------------------------------|
-------------------------------------------------------------------|
------------------------------------*-*-*-*-*-*******-*-*-*-*-*-*--|
******-******-******-******-******-101010101010999999101010101010--|
777777-888888-777777-888888-777777---------------------------------|


-------------------------------------------|
-------------------------------------------|
-------------------------*-*-*---*-*-*-----|
-------------------------5-5-5-5-4-4-4-4---|
----********************-3-3-3-3-2-2-2-2---|
-2--22222222222222222222-------------------|


2:11
------------------------------------------------|
------------------------------------------------|
------------------------------------------------|
------------------------------------------------|
***********************************************-|
77777777777777777777777777777777777554422442233-|



-------------------------------------------------|
-------------------------------------------------|
-------------------------------------------------|
-------------------------------------------------|
************************************************-|
666666666666666666666666666666666666666666666666-|


------------------------------------------------|
------------------------------------------------|
------------------------------------------------|
------------------------------------------------|
***********************************************-|
77777777777777777777777777777777777554422442233-|


-------------------------------------------------|
-------------------------------------------------|
-------------------------------------------------|
-------------------------------------------------|
************************************************-|
666666666666666666666666666666666666666666666666-|


2:28
----------------------------------------------------------------|
----------------------------------------------------------------|
----------------------------------------------------------------|
----------------------------------------------------------------|
4-**********-4-*-5-**********-4-*-5-**********-4-*-5-**********-|
--2222222222---2---2222222222---2---3333333333---3---5555555555-|


--------------------------------------------------------------------|
--------------------------------------------------------------------|
--------------------------------------------------------------------|
--------------------------------------------------------------------|
4-**********-4-*-5-**********-4-*-5-**********-4-*-5-**********-5-*-|
--2222222222---2---2222222222---2---3333333333---3---5555555555---5-|


--------------------------------------------------------------------|
--------------------------------------------------------------------|
--------------------------------------------------------------------|
--------------------------------------------------------------------|
4-***-*-***-4-*-5-***-*-***-4-*-5-***-*-***-4-*-5-***-*-***-5-*-----|
--222-2-222---2---222-2-222---2---333-3-333---3---555-5-555---5-----|


--------------------------------------------------------------------|
--------------------------------------------------------------------|
--------------------------------------------------------------------|
--------------------------------------------------------------------|
4-***-*-***-4-*-5-***-*-***-4-*-5-***-*-***-4-*-5-***-*-***-5-*-----|
--222-2-222---2---222-2-222---2---333-3-333---3---555-5-555---5-----|


2:48
-----------------------------------------------------------------|
-----------------------------------------------------------------|
-----------------------------------------------------------------|
44444444---------------------------------------------------------|
--------55554444------------------------4444----1111-------------|
----------------222233335555222233333333----5555----333322223333-|


-----------------------------------------------------------------|
-----------------------------------------------------------------|
-----------------------------------------------------------------|
44444444---------------------------------------------------------|
--------55554444------------------------4444----1111-------------|
----------------222233335555222233333333----5555----333322223333-|



---------------------------------------------------------------|
---------------------------------------------------------------|
---------------------------------------------------------------|
------------------------------7-************-6-****-6-****-----|
4-************-7-************-5-555555555555-4-4444-4-4444-7-6-|
2-222222222222-5-555555555555------------------------------5-4-|


---------------------------------------------------------------|
---------------------------------------------------------------|
---------------------------------------------------------------|
------------------------------7-************-6-****-6-****-----|
4-************-7-************-5-555555555555-4-4444-4-4444-7-6-|
2-222222222222-5-555555555555------------------------------5-4-|


---------------------------------------------------------------|
---------------------------------------------------------------|
---------------------------------------------------------------|
------------------------------7-************-6-****-6-****-----|
4-************-7-************-5-555555555555-4-4444-4-4444-7-6-|
2-222222222222-5-555555555555------------------------------5-4-|


-----------------------------------------------------------|
-----------------------------------------------------------|
-----------------------------------------------------------|
------------------------------7-************-6-6----6-6----|
4-************-7-************-5-555555555555-4-4----4-4----|
2-222222222222-5-555555555555------------------------------|





3:35
-----------------------------------------------------|
-----------------------------------------------------|
-4-2-0-------4-2-0-------4-2-0-------4-2-0-----------|
-------5-4-2-------5-4-2--------5-4-2-------5-4-2----|
-----------------------------------------------------|
-----------------------------------------------------|


---------------------------------------------------|
---------------------------------------------------|
-5-4-2-2---2-5-4-2-4---4--7-5---4---------------5--|
---------4-----------7--------7---7-4-7-4-7-4-7----|
---------------------------------------------------|
---------------------------------------------------|



-----------------------------------------------------|
-----------------------------------------------------|
-4-2-0-------4-2-0-------4-2-0-------4-2-0-----------|
-------5-4-2-------5-4-2--------5-4-2-------5-4-2----|
-----------------------------------------------------|
-----------------------------------------------------|


---------------------------------------------------|
---------------------------------------------------|
-5-4-2-2---2-5-4-2-4---4--7-5---4---------------5--|
---------4-----------7--------7---7-4-7-4-7-4-7----|
---------------------------------------------------|
---------------------------------------------------|



---------------------------------------------------------------------|
---------------------------------------------------------------------|
---------------------------------------------------------------------|
---------------------------------------------------------------------|
******999999******101010101010******121212121212999999101010101010---|
000000------000000------------000000---------------------------------|


--------------------------------------------------|
--------------------------------------------------|
--------------------------------------------------|
---------------------------*--*--*-----*-*-*------|
999999999999101010101010-\10-10-10-10--9-9-9-9----|
-------------------------\-8--8--8--8\-7-7-7-7\---|


-------------------------------------------------------------------|
-------------------------------------------------------------------|
-------------------------------------------------------------------|
------------------------------------*-*-*-*-*-*******-*-*-*-*-*-*--|
******-******-******-******-******-101010101010999999101010101010--|
777777-888888-777777-888888-777777---------------------------------|


-------------------------------------------|
-------------------------------------------|
-------------------------*-*-*---*-*-*-----|
-------------------------5-5-5-5-4-4-4-4---|
----********************-3-3-3-3-2-2-2-2---|
-2--22222222222222222222-------------------|



4:08
-----------------------------------------------------|
-----------------------------------------------------|
2-4-2-0-------4-2-0-------4-2-0-------4-2-0----------|
-------5-4-2-------5-4-2--------5-4-2-------5-4-2----|
-----------------------------------------------------|
-----------------------------------------------------|


---------------------------------------------------|
---------------------------------------------------|
-5-4-2-2---2-5-4-2-4---4--7-5---4---------------5--|
---------4-----------7--------7---7-4-7-4-7-4-7----|
---------------------------------------------------|
---------------------------------------------------|



-----------------------------------------------------|
-----------------------------------------------------|
-4-2-0-------4-2-0-------4-2-0-------4-2-0-----------|
-------5-4-2-------5-4-2--------5-4-2-------5-4-2----|
-----------------------------------------------------|
-----------------------------------------------------|


---------------------------------------------------|
---------------------------------------------------|
-5-4-2-2---2-5-4-2-4---4--7-5---4---------------5--|
---------4-----------7--------7---7-4-7-4-7-4-7----|
---------------------------------------------------|
---------------------------------------------------|



---------------------------------------------------------------------|
---------------------------------------------------------------------|
---------------------------------------------------------------------|
---------------------------------------------------------------------|
******999999******101010101010******121212121212999999101010101010---|
000000------000000------------000000---------------------------------|


--------------------------------------------------|
--------------------------------------------------|
--------------------------------------------------|
---------------------------*--*--*-----*-*-*------|
999999999999101010101010-\10-10-10-10--9-9-9-9----|
-------------------------\-8--8--8--8\-7-7-7-7\---|


-------------------------------------------------------------------|
-------------------------------------------------------------------|
-------------------------------------------------------------------|
------------------------------------*-*-*-*-*-*******-*-*-*-*-*-*--|
******-******-******-******-******-101010101010999999101010101010--|
777777-888888-777777-888888-777777---------------------------------|


-------------------------------------------|
-------------------------------------------|
-------------------------*-*-*---*-*-*-----|
-------------------------5-5-5-5-4-4-4-4--4|
----********************-3-3-3-3-2-2-2-2--2|
-2--22222222222222222222-------------------|


4:48
------------------------------------------------------------------|
------------------------------------------------------------------|
---*-*-*---****--*--*-*-*---****-*--*-*-*---****-*--*-*-*---****--|
-5-5-5-5-5-5555--5--5-5-5-5-5555-5--5-5-5-5-5555-5--5-5-5-5-5555--|
-3-3-3-3-3-3333--3--3-3-3-3-3333-3--3-3-3-3-3333-3--3-3-3-3-3333--|
------------------------------------------------------------------|


----------------------------------------------------------------|
----------------------------------------------------------------|
--*-*-*---****--*--*-*-*---****-*--*-*-*---****-*--*-*-*---****-|
--4-4-4-4-4444--4--4-4-4-4-4444-4--4-4-4-4-4444-4--4-4-4-4-4444-|
--2-2-2-2-2222--2--2-2-2-2-2222-2--2-2-2-2-2222-2--2-2-2-2-2222-|
----------------------------------------------------------------|


-------------------------------------------------------------------|
-------------------------------------------------------------------|
---*-*-*---****--*--*-*-*---****-*--*-*-*---****-*--*-*-*---****---|
-5-5-5-5-5-5555--5--5-5-5-5-5555-5--5-5-5-5-5555-5--5-5-5-5-5555--4|
-3-3-3-3-3-3333--3--3-3-3-3-3333-3--3-3-3-3-3333-3--3-3-3-3-3333--2|
-------------------------------------------------------------------|



---------------------------------------------------|
-------0-----------0-----------0-----------0-------|
-----0---2-------0---2-------0---2-------0---2-----|
---4-------4---4-------4---4-------4---4-------4---|
-2-----------2-----------2-----------2-------------|
---------------------------------------------------|


------------------------0----------------------0---------|
---1---1---0----1---1--------1---1---0-----1--------1----|
-----2---2--------2---2--------2---2---------4----4------|
---------------------------------------------------------|
-3------------3------------3-------------3---------------|
---------------------------------------------------------|


---------------------------------------------------|
-------0-----------0-----------0-----------0-------|
-----0---2-------0---2-------0---2-------0---2-----|
---4-------4---4-------4---4-------4---4-------4---|
-2-----------2-----------2-----------2-------------|
---------------------------------------------------|


------------------------0----------------------0-------0--|
---1---1---0----1---1--------1---1---0-----1--------1--1--|
-----2---2--------2---2--------2---2---------4----4----2--|
-------------------------------------------------------x--|
-3------------3------------3-------------3-------------3--|
----------------------------------------------------------|
Добавлено: 29.08.2013
Вам также может быть интересно:
Другие материалы по этой песне:
  • Аккорды и текст

Страница создана 29.08.2013
http://primanota.ru/chthonic/spell-of-setting-sun-chords.htm
Привет, Гость.
Предлагаем пройти революционный курс по гитаре.
Подарок от PrimaNota.Ru, забирай!