PrimaNota.ru - самый крупный в мире бесплатный архив песенных текстов, аккордов, табулатур и нот


Chthonic - Bloody Gaya Fulfilled - текст песни, таба, видео

Регистрация Запомнить меня
Войти через:  Facebook Google Twitter Vk Yandex Mail.ru

Chthonic - Bloody Gaya Fulfilled - текст песни, таба, видео

Печатать
Просмотров: 188
----------------------------------------------------------------------------
                           Bloody Gaya Fulfilled - Chthonic
----------------------------------------------------------------------------

Tabbed by:Tom
Email:Tom_stein_gordon@hotmail.com

Tuning: Drop-C [C G C F A D]

(Intro w/ Choir)

Riff 1: (Tremolo Picked)
D|-------------------------------------------------------------------|
A|-------------------------------------------------------------------|
F|-5---7-5-5---7-5--4---7-4-4---7-4--3---6-5-3---6-5-3---6-5-3---6-5-|
C|---5-------5--------5-------5--------3-------3-------3-------3-----|
G|-------------------------------------------------------------------|
C|-------------------------------------------------------------------|

Riff 1 cont: (Tremolo Picked)
D|-----------------------------------------------------|
A|-----------------------------------------------------|
F|-5---7-5-5---7-5--4---7-4-4---7-4--3---6-5-3---6-3-5-|
C|---5-------5--------5-------5--------3-------3-------|
G|-----------------------------------------------------|
C|-----------------------------------------------------|

Riff 2: (Tremolo Picked)
D|---------------------------------------|
A|---------------------------------------|
F|---------------------------------------|
C|---5-6---5-6---5---5-6-----5--6--------|
G|-3-----3-----3---4-----4-4--4----------|
C|---------------------------------------|

Riff 3:
D|----------------------------------------|
A|----------------------------------------|
F|----------------------------------------|
C|-----------3---------------------3------|
G|-1----0----1----5--4---1----0----1----5-|
C|-1----0---------5--4---1----0---------5-|

Riff 4: (Tremolo Picked)
D|------------------------------------------------|
A|------------------------------------------------|
F|----------------------------------------5-7-----|
C|-5--7-8--7-5--4--5-7--5-4--5--7-8--7-5------8-7-|
G|------------------------------------------------|
C|------------------------------------------------|

Riff 5: (Tremolo Picked)
D|---------------------------------------|
A|---------------------------------------|
F|---------------------------------------|
C|-------------------------7-8-----5---7-|
G|-5--8-7-5--4--7-5-7--10------8-7---9---|
C|---------------------------------------|


Repeat riff 1

Riff 6 (palm mute all notes):
D|---------------------------------------------------------------|
A|---------------------------------------------------------------|
F|---------------------------------------------------------------|
C|---------------------------------------------------------------|
G|---------------------------------------------------------------|
C|-5555555-5555555-4444444-4444444-1111111-1111111-000000-000000-|

Riff 6a (palm mute all notes) : (repeat once)
D|-----------------------------------------------------------------------|
A|-----------------------------------------------------------------------|
F|-----------------------------------------------------------------------|
C|-----------------------------------------------------------------------|
G|-----------------------------------------------------------------------|
C|-55555-5-5-5-5-55555-5-5-5-5-44444-4-4-4-4-44444-4-4-4-4-11111-1-1-1-1-|

Riff 6a cont:
D|-------------------------------------------|
A|-------------------------------------------|
F|-------------------------------------------|
C|-------------------------------------------|
G|-------------------------------------------|
C|-11111-1-1-1-1-00000-0-0-0-0-00000-0-0-0-0-|

Repeat riff 6

Riff 7 (Palm mute open C string): (repeat once)
D|--------------------------------------------------------------------------|
A|--------------------------------------------------------------------------|
F|--------------------------------------------------------------------------|
C|---------------5tr7--------------3tr5-------------------------------------|
G|---8--7--5--------7---8--7--5-----------10-8-7h8---10-8-7h8---------------|
C|-00--0-00--0000-----00--0-00--0000---00-0-0-----00-0-0----888-888-888-888-|
      

Play riff 6 twice    
Play riff 6a twice           "Woods shroud warrior attacks..."
Play riff 7 four times    "War cries signaling the cleansing of enemies..."
 
Sorry no solo, yet. Riff 7 plays beneath it

Play riff 1 twice             "Wushe shaken, red sun flags fallen..."
Play riff 3 twice with faster picking pattern (I'm sure you can work it out)
Play riff 4 once              "Sons of the Rmdax tasing..."
Play riff 5 once
Play riff 4 once              " ? "
Play riff 5 once

Then finally end with Riff 6c

D|--------------------------------------------------------------------------|
A|--------------------------------------------------------------------------|
F|--------------------------------------------------------------------------|
C|--------------------------------------------------------------------------|
G|-----------------------------------0--------------------------------------|
C|-5555555-5555555-5555555-5555555---0--------------------------------------|

Well there it is; I hope you liked it
If you want the whole song structure here it is:
Riff 1   x2
Riff 2   x1
Riff 3   x2
Riff 4   x1
Riff 5   x1
Riff 1   x2
Riff 6   x1 
Riff 6a x2
Riff 6   x1
Riff 7   x2
Riff 6   x2
Riff 6a x2
Riff 7   x4
Solo (WIth riff 7)
Riff 1   x2
Riff 3   x2 (With faster picking)
RIff 4   x1
Riff 5   x1
RIff 4   x1
Riff 5   x1
Riff 6c x1
************************************

| /   slide up
| \   slide down
| h   hammer-on
| p   pull-off
| ~   vibrato
| +   harmonic
| *   Mute note
| b   Bend
| pb  Pre-bend
| br  Bend release
| pbr Pre-bend release
| brb Bend release bend

************************************
Добавлено: 08.07.2012
Другие материалы по этой песне:
  • Аккорды и текст

Страница создана 08.07.2012
http://primanota.ru/chthonic/bloody-gaya-fulfilled-chords.htm
Привет, Гость.
Предлагаем пройти революционный курс по гитаре.
Подарок от PrimaNota.Ru, забирай!