PrimaNota.ru - самый крупный в мире бесплатный архив песенных текстов, аккордов, табулатур и нот


Chrysalis - What Will Become Of The Morning - бас-таба, видео

Регистрация Запомнить меня
Войти через:  Facebook Google Twitter Vk Yandex Mail.ru

Chrysalis - What Will Become Of The Morning - бас-таба, видео

Печатать
Просмотров: 64
Tabbed by: 6METAL6BASSIST6
E-mail: petergriffinav@gmail.com

Tuning: Half-step down.

Gb|----------------------------------------------------------------|
Db|----------------------------------------------------------------|
Ab|------------2-----------0---------------------------------------|
Eb|2---------------------------------------------------------------|

Gb|----------------------------------------------------------------|
Db|----------------------------------------------------------------|
Ab|------------2---------------------------------------------------|
Eb|2-----------------------2---------------------------------------|

0:09

Gb|----------------------------------------------------|.
Db|------------------------------------2-----------4---|.
Ab|------------2-----------0---------------------------|.
Eb|2---------------------------------------------------|.
                                                        . x2
Gb|----------------------------------------------------|.
Db|--------2---4-------\-------2-------4-----------\---|.
Ab|------------------------4---------------------------|.
Eb|----------------------------------------------------|.

Gb|----------------------------------------------------------------|
Db|------------2---------------------------------------------------| x2
Ab|2-----------------------0---------------------------------------|
Eb|------------------------------------2-----------0-------2-------|

Gb|----------------------------------------------------------------------------------------|
Db|----------------------------------------------------------------------------------------|
Ab|------------------------4---------------------------------------------------------------|
Eb|4-----------5---------------------------------------------------------------------------|

0:29

Gb|----------------------------------------------------------------|
Db|----------------------------------------------------------------|
Ab|------------2-----------0---------------------------------------|
Eb|2---------------------------------------------------------------|

Gb|----------------------------------------------------------------|
Db|----------------------------------------------------------------|
Ab|------------2---------------------------------------------------|
Eb|2-----------------------2---------------------------------------|

0:35

Gb|----------------------------------------------------|
Db|------------------------------------2-----------4---|
Ab|------------2-----------0---------------------------|
Eb|2---------------------------------------------------|

Gb|----------------------------------------------------|
Db|--------2---4-------\-------2-------4---------------|
Ab|------------------------4---------------------------|
Eb|----------------------------------------------------|

Gb|----------------------------------------------------|
Db|------------------------------------2-----------4---|
Ab|------------2-----------0---------------------------|
Eb|2---------------------------------------------------|

Gb|----------------------------------------------------|
Db|--------2---4---------------2-------4---------------|
Ab|------------------------4---------------------------|
Eb|----------------------------------------------------|

Gb|----------------------------------------------------------------|
Db|------------2---------------------------------------------------| x2
Ab|2-----------------------0---------------------------------------|
Eb|------------------------------------2-----------0-------2-------|

Gb|----------------------------------------------------------------------------------------|
Db|----------------------------------------------------------------------------------------|
Ab|------------------------4---------------------------------------------------------------|
Eb|4-----------5---------------------------------------------------------------------------|

0:55

Gb|9---------------------------------------------------------------|
Db|--------------------7-------8---9-----------11------11--11--11--|
Ab|------------7---------------------------------------------------|
Eb|----------------------------------------------------------------|

Gb|----------------------------------------------------------------|
Db|----------------------------------------------------------------|
Ab|9-----------8---------------8---------------8-------------------|
Eb|--------------------8-----------7-------------------------------|

Gb|----------------------------------------------------------------|
Db|----------------------------------------------------------------|
Ab|4-----------2-------4-------5---6-----------8-------------------|
Eb|----------------------------------------------------------------|

Gb|----------------------------------------------------------------|
Db|----------------------------------------------------------------|
Ab|4-----------6-------------------2-----------0-------------------|
Eb|----------------------------------------------------------------|

Gb|------------------------------------------------|
Db|------------------------------------------------|
Ab|----------------2-------------------------------|
Eb|------------------------------------------------|

1:10

Gb|----------------------------------------------------------------|
Db|----------------------------------------------------------------|
Ab|------------2-----------0---------------------------------------|
Eb|2---------------------------------------------------------------|

Gb|----------------------------------------------------------------|
Db|----------------------------------------------------------------|
Ab|------------2---------------------------------------------------|
Eb|2-----------------------2---------------------------------------|

1:16

Gb|----------------------------------------------------|
Db|------------------------------------2-----------4---|
Ab|------------2-----------0---------------------------|
Eb|2---------------------------------------------------|

Gb|----------------------------------------------------|
Db|--------2---4---------------2-------4---------------|
Ab|------------------------4---------------------------|
Eb|----------------------------------------------------|

Gb|----------------------------------------------------|
Db|------------------------------------2-----------4---|
Ab|------------2-----------0---------------------------|
Eb|2---------------------------------------------------|

Gb|----------------------------------------------------|
Db|--------2---4-------\-------2-------4---------------|
Ab|------------------------4---------------------------|
Eb|----------------------------------------------------|

Gb|----------------------------------------------------------------|
Db|------------2---------------------------------------------------| x2
Ab|2-----------------------0---------------------------------------|
Eb|------------------------------------2-----------0-------2-------|

Gb|----------------------------------------------------------------------------------------|
Db|----------------------------------------------------------------------------------------|
Ab|------------------------4---------------------------------------------------------------|
Eb|4-----------5---------------------------------------------------------------------------|

1:36

Gb|9---------------------------------------------------------------|
Db|--------------------7-------8---9-----------11------11------11--|
Ab|------------7---------------------------------------------------|
Eb|----------------------------------------------------------------|

Gb|----------------------------------------------------------------|
Db|----------------------------------------------------------------|
Ab|9-----------8---------------8---------------8-------------------|
Eb|--------------------8-----------7-------------------------------|

Gb|----------------------------------------------------------------|
Db|----------------------------------------------------------------|
Ab|4-----------2-------4-------5---6-----------8-------------------|
Eb|----------------------------------------------------------------|

Gb|----------------------------------------------------------------|
Db|----------------------------------------------------------------|
Ab|4-----------6-------------------2-----------0-------------------|
Eb|----------------------------------------------------------------|

Gb|------------------------------------------------|
Db|------------------------------------------------|
Ab|----------------2-------------------------------|
Eb|------------------------------------------------|

1:51

Gb|----------------------------------------------------------------|
Db|----------------------------------------------------------------|
Ab|------------2-----------0---------------------------------------|
Eb|2---------------------------------------------------------------|

Gb|----------------------------------------------------------------|
Db|----------------------------------------------------------------|
Ab|------------2---------------------------------------------------|
Eb|2-----------------------2---------------------------------------|

1:57

Gb|----------------------------------------------------|
Db|------------------------------------2-----------4---|
Ab|------------2-----------0---------------------------|
Eb|2---------------------------------------------------|

Gb|----------------------------------------------------|
Db|--------2---4---------------2-------4---------------|
Ab|------------------------4---------------------------|
Eb|----------------------------------------------------|

Gb|----------------------------------------------------|
Db|------------------------------------2-----------4---|
Ab|------------2-----------0---------------------------|
Eb|2---------------------------------------------------|

Gb|----------------------------------------------------|
Db|--------2---4-------\-------2-------4---------------|
Ab|------------------------4---------------------------|
Eb|----------------------------------------------------|

Gb|----------------------------------------------------------------|
Db|------------2---------------------------------------------------| x2
Ab|2-----------------------0---------------------------------------|
Eb|------------------------------------2-----------0-------2-------|

Gb|----------------------------------------------------------------------------------------|
Db|----------------------------------------------------------------------------------------|
Ab|------------------------4-------0-------0-------0-------0-------0-------0-------0-------|
Eb|4-----------5---------------------------------------------------------------------------|

2:18

Gb|----------------------------------------------------------------|
Db|----------------------------------------------------------------|
Ab|------------2-----------0---------------------------------------|
Eb|2---------------------------------------------------------------|

Gb|----------------------------------------------------------------|
Db|----------------------------------------------------------------|
Ab|0-----------2-----------3---------------------------------------|
Eb|----------------------------------------------------------------|

Gb|----------------------------------------------------------------|
Db|----------------------------------------------------------------|
Ab|5-----------0---------------------------------------------------|
Eb|------------------------1---------------------------------------|

Gb|----------------------------------------------------------------|
Db|----------------------------------------------------------------|
Ab|1-----------0---------------------------------------------------|
Eb|------------------------4---------------------------------------|
Добавлено: 24.06.2016
Другие материалы по этой песне:
  • Аккорды и текст

Страница создана 24.06.2016
http://primanota.ru/chrysalis/what-will-become-of-morning-chords.htm
Привет, Гость.
Предлагаем пройти революционный курс по гитаре.
Подарок от PrimaNota.Ru, забирай!