PrimaNota.ru - самый крупный в мире бесплатный архив песенных текстов, аккордов, табулатур и нот


Chronosphere - Brutal Decay - таба, видео

Регистрация Запомнить меня
Войти через:  Facebook Google Twitter Vk Yandex Mail.ru

Chronosphere - Brutal Decay - таба, видео

Печатать
Просмотров: 139
-------------------------------------------------------------------------------
                                          Brutal Decay - Chronosphere
-------------------------------------------------------------------------------
Tabbed by: Alex LeQueux


Tuning: Eb

e|------------------------------------------------------------------------------|
B|------------------------------------------------------------------------------|
G|------------------------------------------------------------------------------|
D|----------------9-8-----------------------------------------------------------|
A|--------7-10----------------------6-------------------------------------------|
E|-0-0--------------------0-0-0-0-----------------------------------------------|

e|-------------------------------------------------------------------------------|
B|---------------------------7+--------------------------------------------------|
G|-------------------------------------------------------------------------------|
D|----------------9-8h9----------------------------------------------------------|
A|--------7-10-------------------------------------------------------------------|
E|-0-0---------------------------------------------------------------------------|
After the intro, this riff repeats at a    Faster tempo
e|------------------------------------------------------------------------------|
B|------------------------------------------------------------------------------|
G|------------------------------------------------------------------------------|
D|---------------9-8------------------------------------------------------------|
A|-------7-10----------------------6--------------------------------------------|
E|-0-0------------------0-0-0-0-------------------------------------------------|

e|-------------------------------------------------------------------------------|
B|-------------------------7+----------------------------------------------------|
G|-------------------------------------------------------------------------------|
D|---------------9-8h9-----------------------------------------------------------|
A|-------7-10--------------------------------------------------------------------|
E|-0-0---------------------------------------------------------------------------|

e|----------------------------------------------------------------------------------|
B|----------------------------------------------------------------------------------|
G|----------------------------------------------------------------------------------|
D|--------------9-8-----------------------------------------------------------------|
A|-------7-10---------------------6-------------------------------------------------|
E|-0-0----------------0-0-0-0-------------------------------------------------------|

e|---------------------------------------------------------------------------------|
B|---------------------------7+----------------------------------------------------|
G|---------------------------------------------------------------------------------|
D|----------------9-8h9------------------------------------------------------------|
A|-------7-10----------------------------------------------------------------------|
E|-0-0-----------------------------------------------------------------------------|

e|-------------------------------------------------------------------------------|
B|-------------------------------------------------------------------------------|
G|-------------------------------------------------------------------------------|
D|-----------------9-8-----------------------------------------------------------|
A|--------7-10-----------------------6-------------------------------------------|
E|-0-0---------------------0-0-0-0-----------------------------------------------|

e|----------------------------------------------------------------------------------|
B|----------------------------------------------------------------------------------|
G|----------------------------------------------------------------------------------|
D|-8\5-5-5--8\5-5-5--5/8-8-8-8--9-9-------------------------------------------------|
A|-6\3-3-3--6\3-3-3--3/6-6-6-6--7-7-------------------------------------------------|
E|----------------------------------------------------------------------------------|


************************************

| /   slide up
| \   slide down
| h   hammer-on
| p   pull-off
| ~   vibrato
| +   harmonic
| x   Mute note
| b   Bend
| pb  Pre-bend
| br  Bend release
| pbr Pre-bend release
| brb Bend release bend

************************************
Добавлено: 25.12.2015
Другие материалы по этой песне:

Страница создана 25.12.2015
http://primanota.ru/chronosphere/brutal-decay-chords.htm
Привет, Гость.
Предлагаем пройти революционный курс по гитаре.
Подарок от PrimaNota.Ru, забирай!