PrimaNota.ru - самый крупный в мире бесплатный архив песенных текстов, аккордов, табулатур и нот


Chrono Cross - Magical Dreamers - таба, видео

Регистрация Запомнить меня
Войти через:  Facebook Google Twitter Vk Yandex Mail.ru

Chrono Cross - Magical Dreamers - таба, видео

Печатать
Просмотров: 162
Tabbed by: facundo_rock_22@hotmail.com

e------------7---8-10---------------7-8-7h8p7---|
B--10-----10--------------10-----10-----------8-|
G-----------------------------------------------|
D-----------------------------------------------|
A-----------------------------------------------|
E-----------------------------------------------|

e------------7---8-10--7--12--13--12h13p12--10--8--10--8h10p8--7-|
B--10-----10-----------------------------------------------------|
G----------------------------------------------------------------|
D----------------------------------------------------------------|
A----------------------------------------------------------------|
E----------------------------------------------------------------|

e------------7---8-10---------------7-8-7h8p7---|
B--10-----10--------------10-----10-----------8-|
G-----------------------------------------------|
D-----------------------------------------------|
A-----------------------------------------------|
E-----------------------------------------------|

e------------7---8-10--7-----|
B--10-----10--------------10-|
G----------------------------|
D----------------------------|
A----------------------------|
E----------------------------|

e-----------------5------------------------------------------------|
B---------8--8--8---8-6-5-6----------6--6--5--3h5p3-----3-5-3------|
G--5---7--------------------7--5--7------------------5-------------|
D------------------------------------------------------------ <----| X
A------------------------------------------------------------------|
E------------------------------------------------------------------|

e-----------------5------------------8--8--7-5---------|
B---------8--8--8---8-6-5-6--------------------8--6--8-|
G--5---7--------------------7--5--7--------------------|
D------------------------------------------------------|
A------------------------------------------------------|
E------------------------------------------------------|

e--7--8--5--8--7-----5--------7--8--5--8--7-----5-|
B-----------------8-----6--------------------8----|
G-------------------------------------------------|
D-------------------------------------------------|
A-------------------------------------------------|
E-------------------------------------------------|

e--7--8--5--8--7-----5--------7--8--5-------|
B-----------------8-----6--------------6--8-|
G-------------------------------------------|
D-------------------------------------------|
A-------------------------------------------|
E-------------------------------------------|

e------------7---8-10---------------7-8-7---|
B--10-----10--------------10-----10-------8-|
G-------------------------------------------|
D-------------------------------------------|
A-------------------------------------------|
E-------------------------------------------|

e------------7---8-10-7-12-13-12-10-8-10-8-7-|
B--10-----10---------------------------------|
G--------------------------------------------|
D--------------------------------------------|
A--------------------------------------------|
E--------------------------------------------|

e------------7---8-10---------------7-8-7---|
B--10-----10--------------10-----10-------8-|
G-------------------------------------------|
D-------------------------------------------|
A-------------------------------------------|
E-------------------------------------------|

e------------7---8-10-7----|
B--10-----10------------10-|
G--------------------------|
D--------------------------|
A--------------------------|
E--------------------------|


This is the first tab i submit, but it sounds pretty similar.Enjoy!
Добавлено: 29.11.2013
Другие материалы по этой песне:
  • Аккорды и текст

Страница создана 29.11.2013
http://primanota.ru/chrono-cross/magical-dreamers-chords.htm
Привет, Гость.
Предлагаем пройти революционный курс по гитаре.
Подарок от PrimaNota.Ru, забирай!