PrimaNota.ru - самый крупный в мире бесплатный архив песенных текстов, аккордов, табулатур и нот


Chrono Cross - At The Shore Of Dreams Of Another World - таба, видео

Регистрация Запомнить меня
Войти через:  Facebook Google Twitter Vk Yandex Mail.ru

Chrono Cross - At The Shore Of Dreams Of Another World - таба, видео

Печатать
Просмотров: 111
-------------------------------------------------------------------------------
	     At the Shore of Dreams of Another World - Chrono Cross
-------------------------------------------------------------------------------
Tabbed by:Xaxu
Tuning:Standard


This was a combination of two tabs by Skellter and MrSpiffy. Im tabbing them in
Text format for anyone who doesn't have Guitar Pro.
Here is the video for timing = http://www.youtube.com/watch?v=MV-FvxoR1PQ


Guitar 1 plays Melody and is on top. Guitar 1's notes should be sustained
as long as it takes to get to the next note.

Guitar 2 plays Rhythm and is on bottom.


G2 0:04 - 0:09
e|------1---0--1-----1---0--1-----1---0--1-----0------|
B|-------------------------------------------------3--|
G|----2---2--------2---2------------2-----------------|
D|--0------------0--------------3------------3---3----|
A|----------------------------1------------1----------|
E|----------------------------------------------------|


  0:10 - 0:14
e|------5---3--5-----6---5-----3---1--3-----1---0--|
B|-------------------------------------------------|
G|----2---5--------5---5-----0---0--------0---0----|
D|-------------------------------------------------|
A|--3------------3---------3------------3----------|
E|-------------------------------------------------|


  0:15 - 0:20
e|-----10----------|
B|--------------6--|
G|--------10--7----|
D|--12-------------|
A|-----------------|
E|-----------------|

e|------1---0--1-----1---0--1-----1---0--1-----0------|
B|-------------------------------------------------3--|
G|----2---2--------2---2------------2-----------------|
D|--0------------0--------------3------------3---3----|
A|----------------------------1------------1----------|
E|----------------------------------------------------|

 
  0:21 - 0:25
e|--5--6--5--3--1--0--|
B|--------------------|
G|--------------------|
D|--------------------|
A|--------------------|
E|--------------------|

e|------5---3--5-----6---5-----3---1--3-----1---0--|
B|-------------------------------------------------|
G|----2---5--------5---5-----0---0--------0---0----|
D|-------------------------------------------------|
A|--3------------3---------3------------3----------|
E|-------------------------------------------------|


  0:26 - 031
e|-----10----------|
B|--------------6--|
G|--------10--7----|
D|--12-------------|
A|-----------------|
E|-----------------|

e|------1---0--1-----1---0--1-----1---0--1-----0------|
B|-------------------------------------------------3--|
G|----2---2--------2---2------------2-----------------|
D|--0------------0--------------3------------3---3----|
A|----------------------------1------------1----------|
E|----------------------------------------------------|

  0:32 - 0:37
e|--5--6--5--3--1--0--|
B|--------------------|
G|--------------------|
D|--------------------|
A|--------------------|
E|--------------------|

e|------5---3--5-----6---5-----3---1--3-----1---0--|
B|-------------------------------------------------|
G|----2---5--------5---5-----0---0--------0---0----|
D|-------------------------------------------------|
A|--3------------3---------3------------3----------|
E|-------------------------------------------------|


  0:38 - 0:43
e|----1--0------|
B|--3------1----|
G|-----------2--|
D|--------------|
A|--------------|
E|--------------|

e|---------------------------------------------------------|
B|------3---1--3-----3---1--3------1---0--1------1---0--1--|
G|---------------------------------------------------------|
D|----3---3--------0---3-------------2-------------2-------|
A|--1------------1------------0--3----------0--3-----------|
E|---------------------------------------------------------|


  0:44 - 0:48
e|----0----|
B|--3---3--|
G|---------|
D|---------|
A|---------|
E|---------|

e|------0------------0------------0------------0---------|
B|----------1--3---------1--3---------1--3---------1--3--|
G|----2---2--------2---2--------2---2--------2---2-------|
D|--0------------0------------0------------0-------------|
A|-------------------------------------------------------|
E|-------------------------------------------------------|


  0:49 - 0:55
e|----1--0--3--|
B|--3----------|
G|-------------|
D|-------------|
A|-------------|
E|-------------|

e|---------------------------------------------------------|
B|------3---1--3-----3---1--3------1---0--1------1---0--1--|
G|---------------------------------------------------------|
D|----0---3--------0---3-------------2-------------2-------|
A|--1------------1------------0--3----------0--3-----------|
E|---------------------------------------------------------|


  0:56 - 1:01
e|--3---1--0--|
B|----3-------|
G|------------|
D|------------|
A|------------|
E|------------|

e|---------------------------------------------0---1---0---5--|
B|------0-----0-----0-----0------2---0--2--3------------------|
G|----------2-----------2-------------------------------------|
D|--------0-----------0------------2-----------------2---2----|
A|----2-----------2---------0--4------------------------------|
E|--3-----------3----------------------------0---0------------|



| /  slide up
| \  slide down
| h  hammer-on
| p  pull-off
| ~  vibrato
| +  harmonic
| x  Mute note
===============================================================================
Добавлено: 23.07.2013
Другие материалы по этой песне:
  • Аккорды и текст

Страница создана 23.07.2013
http://primanota.ru/chrono-cross/at-the-shore-of-dreams-of-another-world-chords.htm
Привет, Гость.
Предлагаем пройти революционный курс по гитаре.
Подарок от PrimaNota.Ru, забирай!