PrimaNota.ru - самый крупный в мире бесплатный архив песенных текстов, аккордов, табулатур и нот


Chrono Cross - Another Guldov - таба, видео

Регистрация Запомнить меня
Войти через:  Facebook Google Twitter Vk Yandex Mail.ru

Chrono Cross - Another Guldov - таба, видео

Печатать
Просмотров: 96
-------------------------------------------------------------------------------
                           Another Galdov - Chrono Cross
-------------------------------------------------------------------------------
Tabbed by:Xaxu
Tuning:Standard

This was orginally in gp3. format im transferring it to text.this is
the video used for timing, http://www.youtube.com/watch?v=pK7bEbUswUA


  0:01 - 0:09
e|-----------------------------------------------------------|
B|--------0---0---------0---0---------0---0---------0---0----|
G|------2---2---0-----2---2---0-----2---2---0-----2---2---0--|
D|----0-------------0-------------1-------------1------------|
A|-----------------------------------------------------------|
E|--3-------------3-------------3-------------3--------------|

  0:10 - 0:18
e|-------------------------------------------------------------|
B|--------0---0---------0---0---------0---0---------0--1--3----|
G|------2---2---0-----2---2---0-----2---2---0-----2---------0--|
D|----2-------------2-------------3-------------3--------------|
A|-------------------------------------------------------------|
E|--3-------------3-------------3-------------3----------------|

  0:19 - 0:26
e|-------------0---------------0---------------3---------------3----|
B|-----1--3--1---1-----1--3--1---1-----1--3--1---1-----1--3--1---1--|
G|---0---------------0---------------0---------------0--------------|
D|---------------------------------1---------------1----------------|
A|------------------------------------------------------------------|
E|-3---------------3------------------------------------------------|

  0:27 - 0:35
e|--------2---2---------2---3----0-----------0---3-----3--2--|
B|------0---0---0-----0---0---0--1-----3---------3---3----3--|
G|----0-------------0----------------0-----0---0---2------2--|
D|--2-------------0----------------2-----2-------0--------0--|
A|-------------------------------3------------------------0--|
E|-----------------------------------------------------------|

  0:36 - 0:44
e|--------------------------------------------------------|
B|--3---0---3---1-------1---0--------------------------0--|
G|----0---0---0-----2-----------0---2-------------0--2----|
D|----------------1---1---1---0---0---0---0--2--4---------|
A|--------------------------------------------------------|
E|--3-----------3-----------3-----------3-----------------|

  0:45 - 0:53
e|---------------------------------------------------------|
B|--3---0---3---4---3---1---0-------0--1----1--0h1p0-------|
G|----0---0---0---0---0---0-----2------2----2--------2--0--|
D|----------------------------0---0----3--3----------------|
A|--------------3------------------------------------------|
E|--3-----------------------3----------3-------------------|

  0:54 - 1:02
e|--------------------------0-------------------------|
B|-------------------3------1----1--0-----------------|
G|-------0--2--0-----0---0--0----0----2--0-----0---2--|
D|--4----------0---0---0----2--2---------2---2---2----|
A|--3--3---------2----------0--------------2----------|
E|-------------3-------------------------0------------|

  1:03 - 1:10
e|---------------------------------------------0-----0--2---0------|
B|-------------------------------------0-----0-----0----------0----|
G|--0----0-------0--2p0----------0---------0--------------------0--|
D|--2--2---2--4--0------4--2--4--2---2-----------------------------|
A|--3------------------------------2-----2-------2--------2--------|
E|-------------------------------0---------------------------------|

  1:11 - 0:23
e|--2----2--2--3----3-----0----0--0--1----1---------------------------|
B|--1----1--1--3----3--3--1----1--1--1----1--1--3----3--3--4----4-----|
G|--0----------0-------0--3----------2-------2--1----1--1--3----3--3--|
D|--2--2-------0----------2--2-------3--3-------3------------------3--|
A|--3---------------------3----------2----------1--1------------------|
E|-------------3--3----------------------------------------3--3----3--|

  1:24 - 1:37
e|--8----8--8--7-----7----5----7---3-------3---2---3-----------3--3--5--7--8--7--5--|
B|--5----5--5--8--7--8--8--------------3-----------------3---3----------------------|
G|--5--5----------------7----0---0---0---2---2---2-----0---2------------------------|
D|--5----------------------------------0-------------2------------------------------|
A|--0---------------------3---------------------------------------------------------|
E|-------------7--------7--------------------------0--------------------------------|


| /  slide up
| \  slide down
| h  hammer-on
| p  pull-off
| ~  vibrato
| +  harmonic
| x  Mute note
===============================================================================
Добавлено: 28.08.2013
Другие материалы по этой песне:
  • Аккорды и текст

Страница создана 28.08.2013
http://primanota.ru/chrono-cross/another-guldov-chords.htm
Привет, Гость.
Предлагаем пройти революционный курс по гитаре.
Подарок от PrimaNota.Ru, забирай!