PrimaNota.ru - самый крупный в мире бесплатный архив песенных текстов, аккордов, табулатур и нот


Chrono Cross - Another Arni - таба, видео

Регистрация Запомнить меня
Войти через:  Facebook Google Twitter Vk Yandex Mail.ru

Chrono Cross - Another Arni - таба, видео

Печатать
Просмотров: 125
-------------------------------------------------------------------------------
			 Another Arni - Chrono Cross
-------------------------------------------------------------------------------
Tabbed by:Xaxu
Tuning:Standard

This was orginally in gp3. format im transferring it to text.this is
the video used for timing, http://www.youtube.com/watch?v=rGyG3L4UNms

Capo on the 1st Fret

  0:01 - 0:09
e|------2---3-----2---0-----2---3-----2---0--|
B|------3---3-----3---3-----3---3-----3---3--|
G|----2---2-----2---2-----2---2-----2---2----|
D|--0---------0---------0---------0----------|
A|-------------------------------------------|
E|-------------------------------------------|

Continue from here if repeated after last part.
  0:10 - 0:18
e|--2-----3p2--0---0------------2-----3p2--0---0---5-----3--|
B|------3--------3----------3-------3--------3--------------|
G|----2--------------2--0-----0---2--------------2---2------|
D|--0---------------------0-----0----------------------0----|
A|----------------------------------------------------------|
E|-----------------3---------------------------3------------|

  0:19 - 0:27
e|--2-----3p2--0---0------------0-------------------------|
B|------3--------3----------3---2------------3------------|
G|-------------------2--0-----0-----2---0----2---------2--|
D|----4-------------------0-------2---2---2--4----2--4----|
A|--2---------------------------0------------5--5---------|
E|-----------------3--------------------------------------|

  0:28 - 0:37
e|--2-------5---0-----------2-------5---3---10---9----|
B|--3---3-------1-------3---3-----------0---0----0----|
G|----2---2---2-----0-----------2---------0----0---0--|
D|--0-------------2---2---2---4---4---4---------------|
A|--------------0-----------2-------------------------|
E|--------------------------------------3-------------|

  0:38 - 0:43
e|--10----------3--2---------0--2-------3----|
B|--7-----10----3--3-------3----0---0---0----|
G|-----7--7-----3------2----------0---0---0--|
D|--0--------0--2----4---4-------------------|
A|-----------------2-------------------------|
E|------------------------------3------------|

  0:44 - 0:49
e|--0------------------0--2--3--2--|
B|--2-------3----3---3----------3--|
G|------2---2------2------------2--|
D|----2---2---2--0--------------0--|
A|--0------------------------------|
E|---------------------------------|

  0:52 - 1:00
e|---------------------------------0--2--3--2---3---5----|
B|--0-------3----1-------0---3---3----------3---3---3----|
G|--0---0-----0--0---0-----0---2--------------2---2---2--|
D|----0---0--------2---2-----0--------------0------------|
A|---------------3---------------------------------------|
E|--3----------------------------------------------------|

  1:01 - 1:10
e|-------------------0--------------0--2--3--2-----2--3--5--|
B|--0-------3----1---1---3----3---3----------3---3----------|
G|--0---0-----0--0-------0------2--------------2------------|
D|----0---0--------2---2---2--0--------------0--------0-----|
A|---------------3------------------------------------------|
E|--3-------------------------------------------------------|

  1:11 - 1:18
e|---------------------------------0--2--3--2-----0--2--|
B|--0-------3----1-------0---3---3----------3---3-------|
G|--0---0-----0--0---0-----0---2--------------2---------|
D|----2---2--------2---2-----0--------------0-----------|
A|---------------3--------------------------------------|
E|--0---------------------------------------------------|

  1:19 - 1:31
e|--3---------3--3-------5---3---------3--3-------5----|
B|------1---1--------1-----------0---0--------0--------|
G|----0---0--------0---0---0---0---0--------0---0---0--|
D|-----------------------------------------------------|
A|--3------------3-----------2------------2------------|
E|-----------------------------------------------------|

  1:32 - 1:42
e|--3---------3--3-------3----0-------0---5---0--------------------0-----|
B|------3---3--------3-----3--3---3---3---3---3---3---2-----2------2-----|
G|----3---3--------3---3----------2---------------2---2---2-----2--2--2--|
D|------------------------------2---2---2---2---2---2---2-----2----2-----|
A|--1------------1------------0-----------0-----------0------------0-----|
E|-----------------------------------------------------------------------|

repeat till infinity

| /  slide up
| \  slide down
| h  hammer-on
| p  pull-off
| ~  vibrato
| +  harmonic
| x  Mute note
===============================================================================
Добавлено: 19.06.2013
Другие материалы по этой песне:
  • Аккорды и текст

Страница создана 19.06.2013
http://primanota.ru/chrono-cross/another-arni-chords.htm
Привет, Гость.
Предлагаем пройти революционный курс по гитаре.
Подарок от PrimaNota.Ru, забирай!