PrimaNota.ru - самый крупный в мире бесплатный архив песенных текстов, аккордов, табулатур и нот


Chronic Future - Wicked Games - текст песни, таба, видео

Регистрация Запомнить меня
Войти через:  Facebook Google Twitter Vk Yandex Mail.ru

Chronic Future - Wicked Games - текст песни, таба, видео

Печатать
Просмотров: 212
Song: Wicked Games
Artist: Chronic Future
Album: Lines In My Face


Tabbed by: NFG_rox
Email: choward@tctc.edu
AIM: BonamassaFAN 04

Chronic Future does not have many tabs on this website. This is an awesome band, and
awesome song. It's a shame they are not more popular. Anyways, no one has tabbed this
song yet so i had to do it myself. it was easy other than the tuning, which is a step
and 1/2 down. PS: The bridge is broken up into three different parts so i put the time
at where each part starts in the song. That only works for those of you who have the
album version. Good luck and enjoy!!! Neil



Tuning: C#, F#, B, E, G#, C#

Intro (Clean)

e|--------------------------------------------------|
B|--------------------------------------------------|
G|--------------------------------------------------|
D|-8-8-8-8-8--11-11-11-11-11--6-6-6-6-6--6-6-6-4-4--|
A|--6-6-6-6-6---9--9--9--9--9--4-4-4-4-4--4-4-4-2-2-|
E|--------------------------------------------------|

                    ^ Those are 11's not 1's                  
 
Intro Continued (Distortion)

e|-----------------------------------------------------------------------------|
B|-----------------------------------------------------------------------------|
G|-88888888-11111111-1313131313131313-15151515-15/16\15~~----------------------|
D|-88888888-11111111-1313131313131313-15151515-15/16\15~~-*Some-Wierd-Harmonic-|
A|-66666666-9-9-9-9--1111111111111111-13131313-13/14\13~~----------------------|
E|-----------------------------------------------------------------------------|

              ^ 11's | ^ 11's & 13's |  ^ 13's & 15's

e|------------------------------|
B|------------------------------|
G|-6666---------------------8~~-|
D|-6666-9999-8888-6666-4444-8~~-|
A|-4444-9999-8888-6666-4444-6~~-|
E|------7777-6666-4444-2222-----|

Verse1(Clean)

e|----------------|----------------------|
B|----------------|----------------------|
G|-11---6----6--4-|-8----11----6----6--4-|
D|-11---6----6--4-|-8----11----6----6--4-|
A|-9----4----4--2-|-6----9-----4----4--2-|
E|----------------|----------------------|

Chorus (Distortion)

e|-----------------------------------------|
B|-----------------------------------------|
G|-8---------11----------------------------|
D|-8-(16x)---11-(16x)---11---------9-------|
A|-6---------9----------11-(16x)---9-(16x)-| 2x
E|----------------------9----------7-------|   


Verse2 (Clean)

e|-----------------------|----------------------|----------------------|
B|-----------------------|----------------------|----------------------|
G|-8-----11----6----6--4-|-8----11----6----6--4-|-8----11----6----6--4-|
D|-8-----11----6----6--4-|-8----11----6----6--4-|-8----11----6----6--4-|
A|-6-----9-----4----4--2-|-6----9-----4----4--2-|-6----9-----4----4--2-|
E|-----------------------|----------------------|----------------------|


Chorus (Distortion)

e|-----------------------------------------|    
B|-----------------------------------------|    
G|-8---------11----------------------------|    
D|-8-(16x)---11-(16x)---11---------9-------|    
A|-6---------9----------11-(16x)---9-(16x)-| 2x 
E|----------------------9----------7-------|    

Bridge1 (Distortion) [2:34]

e|----------------------------------------|    |-----|
B|----------------------------------------|    |-----|
G|-8---------11---------------------------|    |-8---|
D|-8-(16x)---11-(16x)---6---------4-------|    |-8---|
A|-6---------9----------6-(16x)---4-(16x)-| 2x |-6~~-|
E|----------------------4---------2-------|    |-----|

Bridge2 (Distortion) [3:00]

e|-------------------------|
B|-------------------------|
G|-11----6----6--xxxxxxxxx-|
D|-11----6----6--xxxxxxxxx-|
A|-9-----4----4--xxxxxxxxx-|
E|-------------------------|

Bridge3 (Distortion) [3:13]

e|-----------------------------------------|
B|-----------------------------------------|
G|-8---------11----------------------------|
D|-8-(16x)---11-(16x)---11---------9-------|
A|-6---------9----------11-(16x)---9-(16x)-| Then
E|----------------------9----------7-------|   

e|-----------------------------------------------------------------------------|
B|-----------------------------------------------------------------------------|
G|-88888888-11111111-1313131313131313-15151515-15/16\15~~----------------------|
D|-88888888-11111111-1313131313131313-15151515-15/16\15~~-*Some-Wierd-Harmonic-|
A|-66666666-9-9-9-9--1111111111111111-13131313-13/14\13~~----------------------|
E|-----------------------------------------------------------------------------|

             ^ 11's | ^ 11's & 13's |  ^ 13's & 15's

e|------------------------------|
B|------------------------------|
G|-6666---------------------8~~-|
D|-6666-9999-8888-6666-4444-8~~-|
A|-4444-9999-8888-6666-4444-6~~-|
E|------7777-6666-4444-2222-----|

Outro (Clean)

e|--------------|
B|--------------|
G|-11----6----4-|
D|-11----6----4-|
A|-9-----4----2-|
E|--------------|

Order:

Intro
Intro Continued
Verse1
Chorus
Verse2
Chorus
Bridge1 [2:34]
Bridge2 [3:00]
Bridge2 [3:13]
Outro

======================================
That's it!!! Enjoy, and comment. 
Let me know what you think. 
AIM is BonamassaFAN 04! Thanks!
Neil
======================================

| /  slide up
| \  slide down
| h  hammer-on
| p  pull-off
| ~  vibrato
| +  harmonic
| x  Mute note
==========================
=====================================================
Добавлено: 13.05.2012
Вам также может быть интересно:
Другие материалы по этой песне:
  • Аккорды и текст

Страница создана 26.03.2012
http://primanota.ru/chronic-future/wicked-games-chords.htm
Привет, Гость.
Предлагаем пройти революционный курс по гитаре.
Подарок от PrimaNota.Ru, забирай!