PrimaNota.ru - самый крупный в мире бесплатный архив песенных текстов, аккордов, табулатур и нот


Chronic Future - Things You Ought To Know - таба, видео

Регистрация Запомнить меня
Войти через:  Facebook Google Twitter Vk Yandex Mail.ru

Chronic Future - Things You Ought To Know - таба, видео

Печатать
Просмотров: 113
Chronic Future

Things you ought to know (original version)

Tab by Jay Morgan (skimpydime)


Geart song. almost two years old with no tabs.


down 1/2 step

Intro/verse (guitar 1)

rest after every note.

e-12--12--12--12--12--12--12--12--10--10--10--10--12--12--12--12-|
b-13--13--13--13--12--12--12--12--12--12--12--12--13--13--13--13-|
g-14--14--14--14--12--12--12--12--12--12--12--12--14--14--14--14-|
d----------------------------------------------------------------|
a----------------------------------------------------------------|
e----------------------------------------------------------------|


verse (guitar 2)


e----------------------------------------------|
b----------------------------------------------|
g----------------------------------------------|
d----------------------------------------------|   Repeat a bunch
a12-12h14p12-10-10----------------10-12--------|
e------------------12-12-10-10h12-------12-12--|


Chorus

e-----------------------------------------|
b-----------------------------------------|
g-----------------------------------------|       3x
d-7-7-7-12-12-12-10-10-10-10-10-10--------|       then...
a-7-7-7-12-12-12-10-10-10-10-10-10--------|
e-5-5-5-10-10-10-8--8--8--7--7--7---------|


e-------------------------------------|
b-------------------------------------|
g-------------------------------------|
d-7-7-7-12-12-12-10-10-10-10-14-14-14-|
a-7-7-7-12-12-12-10-10-10-10-14-14-14-|
e-5-5-5-10-10-10-8--8--8--7--12-12-12-|


dont know the breakdown part. good luck. post your own fixes.
Добавлено: 03.06.2012
Другие материалы по этой песне:
  • Аккорды и текст

Страница создана 03.06.2012
http://primanota.ru/chronic-future/things-you-ought-to-know-chords.htm
Привет, Гость.
Предлагаем пройти революционный курс по гитаре.
Подарок от PrimaNota.Ru, забирай!