PrimaNota.ru - самый крупный в мире бесплатный архив песенных текстов, аккордов, табулатур и нот


Chronic Future - I Think You Got Ahead Of Me - аккорды и текст, таба, видео

Регистрация Запомнить меня
Войти через:  Facebook Google Twitter Vk Yandex Mail.ru

Chronic Future - I Think You Got Ahead Of Me - аккорды и текст, таба, видео

Печатать
Просмотров: 149
I Think You Got Ahead Of Me
Chronic Future
-------------------------------------------------------------------------------
                           I Think You Got Ahead Of Me - Chronic Future
-------------------------------------------------------------------------------
Tabbed by:Vtrillo627
Email:it_dies_today84@yahoo.com

Tuning:Half-Step Down  




      C    Cmaj9    Am     G      Em     F
eb|---0------0------0------3------0------1-------|
Bb|---1------1------1------3------0------1-------|
Gb|---0------0------2------0------0------2-------|
Db|---2------0------2------0------2------3-------|
Ab|---3------2------0------2------2------3-------|
Eb|---x------x------x------3------0------1-------|



Intro:

      C    Cmaj9    Am     G      
eb|---0------0------0------3-------|
Bb|---1------1------1------3-------|
Gb|---0------0------2------0-------|
Db|---2------0------2------0-------|
Ab|---3------2------0------2-------|
Eb|---x------x------x------3-------|




Verse 1:

C                           Cmaj9
I think you got ahead of me, you got ahead of me
Am                          G
Walking back towards the sea and moving steadily
C                         Cmaj9
As far as the eye can see all is empty
Am                  G
No sign of anything resembling the living
C            Cmaj9          Am           G           
So baby come home don't you leave me all alone
                   C                   Cmaj9
The knots that you make, ties that you break, 
              Am           G
Life that you take all adds up to nothing, nothing but



Chorus:

C                   Am     Em    G
When you don't play by the rules
C             Am        Em   G
The days turn black and blue
C               Am             Em  G
I guess you got some things to do
C    Am       Em  G
I'll remember you



Bridge:

F
These are not the eyes of me
G
It's just a side of me
C
rising like the tide of sea
C
Nothing more surprises me
F
Slip away so quietly
G
I am ready walking down the side of me

Please come cry with me



Verse 2:

C                              Cmaj9
I think you got the best of me because the rest of me
Am                        G
Has lost all feeling with no signs of healing
C                            Cmaj9
How can i just let it be when everything
Am                       G
Isn't how it ought to be it's my autobiography
C               Cmaj9           Am             G
So when the wind blows will you hit that lonely road
               C                  Cmaj9
And never look back at what might have come
  Am                 G
To pass so it became nothing, nothing cause




Chorus:

C                   Am     Em    G
When you don't play by the rules
C             Am        Em   G
The days turn black and blue
C               Am             Em  G
I guess you got some things to do
C    Am       Em  G
I'll remember you



Bridge:

F                    G             
I fell down from the top of the world
C
It's my farewell party
F                  G          C
I'll sail off into the setting sun (hey now)
F                    G
I fell down from the top of the world
C
And these words of parting
F                 G
Were written with love just for you



Verse 3:

C                             Cmaj9
Please don't think less of me because the better me
Am                           G
That stands right next to me waits for me to set it free
C                       Cmaj9
I am what i used to be to confused to see
Am
Hasn't gotten used to me root, trunk, branch, leaf
C                                  Cmaj9
That's the way it's supposed to go I'm one my shoulder knows
Am                           G
Asking them to hold the boat this the fit we chose to throw
C                            Cmaj9                    
Cold nights and lonely roads I want you to know
Am                                  G                              
That you're the only one that makes this life so beautiful


eb|------------------------------------19------12-15------|
Bb|---13---13-12---12------13---13-15----20---------------|
Gb|------------------12-----------------------------------| x2
Db|-------------------------------------------------------|
Ab|-------------------------------------------------------|
Eb|-------------------------------------------------------|



Verse 4:

C                       Cmaj9
Say it like you mean it like you believe it
Am                      G
Cause i best believe in going with the season
C                         Cmaj9
Appreciate you telling me cause i was wondering
Am                      G
Why my ears are ringing each and every evening
C        Cmaj9      Am               G              
So off i go back to things i used to know
                C                    Cmaj9
And when I look back the good and the bad times 
       Am                 G
that we had all add up to Something something cause


eb|---------------19-----12-15----------------------------|
Bb|---13---13-15----20------------13---13-12---12---------|
Gb|----------------------------------------------12--x16--| x2
Db|-------------------------------------------------------|
Ab|-------------------------------------------------------|
Eb|-------------------------------------------------------|



Chorus:

C                   Am     Em    G
When you don't play by the rules
C             Am        Em   G
The days turn black and blue
C               Am             Em  G
I guess you got some things to do
C    Am       Em  G
I'll remember you



Chorus:

C                   Am     Em    G
When you don't play by the rules
C             Am        Em   G
The days turn black and blue
C               Am             Em  G
I guess you got some things to do
C    Am       Em  G
I'll remember you






| /  slide up
| \  slide down
| h  hammer-on
| p  pull-off
| ~  vibrato
| +  harmonic
| x  Mute note
===============================================================================
Добавлено: 18.06.2012
Другие материалы по этой песне:
  • Аккорды и текст

Страница создана 11.06.2012
http://primanota.ru/chronic-future/i-think-you-got-ahead-of-me-chords.htm
Привет, Гость.
Предлагаем пройти революционный курс по гитаре.
Подарок от PrimaNota.Ru, забирай!