PrimaNota.ru - самый крупный в мире бесплатный архив песенных текстов, аккордов, табулатур и нот


Chron Gen - Hounds Of The Night - аккорды и текст, таба, видео

Регистрация Запомнить меня
Войти через:  Facebook Google Twitter Vk Yandex Mail.ru

Chron Gen - Hounds Of The Night - аккорды и текст, таба, видео

Печатать
Просмотров: 141
Уроки эстрадного вокала в Санкт-Петербурге
Hounds Of The Night
Chron Gen
Chron Gen  Hounds Of The Night

Intro
|-2------2/5--4------4/7---|
|---3----3/6----5----5/8---|
|-----2--2/5------4--4/7---| x2

Pre Verse
  D     F     E     G
|-22-2--55-5--44-4--77-7--|   x2
|-33-3--66-6--55-5--88-8--|
|-22-2--55-5--44-4--77-7--|

Verse
D                 F        E         G
A night so full of fear, colours very strange to me
am I really here?        echoes reassuring me

Pre Verse x2

Verse
Bewitching lights are chasing me, suddenly he turns on me
a paranoid delight       the hounds of the night

Pre Verse x2

Solo (Verse Backing)
|------------------------------------------------------|
|------------------------------------------------------|
|-4/7---10-10--9-7---7--9-7---7--9-7---7--9-7---7-9-7--|
|------------------9--------9--------9--------9--------|

|--------------------|
|--------------------|
|-2--2/5--5/4--4/7---|

Post Solo
  A            C            F      G
|-9-9-9-9-9-9--121212121212-555555-777777-|  x2
|-101010101010-131313131313-666666-888888-|
|-9-9-9-9-9-9--121212121212-555555-777777-|

Verse
Only victim of my plight, sharp face, drawn and white
demented, staring straight at me, an onslaught to my memory 


Pre Verse  x2

Repeat Intro over verse chords
|-2------5------4------7-----|
|---3------6------5------8---|
|-----2------5------4------7-|

Pre Verse x2

Outro
  D        F     E    G       D     F    E     G
|-1414-14--55-5--44-4--77-7--|-22-2--55-5--44-4--77-7--|  x2
|-1515-15--66-6--55-5--88-8--|-33-3--66-6--55-5--88-8--|
|-1414-14--55-5--44-4--77-7--|-22-2--55-5--44-4--77-7--|
Добавлено: 30.10.2013
Другие материалы по этой песне:
  • Аккорды и текст

Страница создана 22.06.2012
http://primanota.ru/chron-gen/hounds-of-the-night-chords.htm
Привет, Гость.
Предлагаем пройти революционный курс по гитаре.
Подарок от PrimaNota.Ru, забирай!