PrimaNota.ru - самый крупный в мире бесплатный архив песенных текстов, аккордов, табулатур и нот


Chromeo - Sexy Socialite - бас-таба, видео

Регистрация Запомнить меня
Войти через:  Facebook Google Twitter Vk Yandex Mail.ru

Chromeo - Sexy Socialite - бас-таба, видео

Печатать
Просмотров: 92
Artist: Chromeo
Song: Sexy Socialite
Tabbed by: Dave Sheehan


Please rate this tab :)


VERSE

G|-----------------|---8-------6---8-|
D|---8-----6\------|-----------------|
A|-----------------|-6-----4-4---6---|
E|-6-----4---------|-----------------|
   1 & 2 & 3 & 4 &   1 & 2 & 3 & 4 &  


VERSE 2 VARIATION

G|-----------------|-----------6---8-|
D|---8-----6\------|-----------------|
A|-----------------|-r-------4---6---|
E|-6-----4---------|-----------------|
   1 & 2 & 3 & 4 &   1 & 2 & 3 & 4 &  


PRECHORUS

G|-----------------|-----------------|-----------------|-----------------|
D|-----------------|-----------------|-----------------|-----------------|
A|-----------------|-----------------|-----------------|---4---4---6---6-|
E|---2---2---2---2-|--4---4---4---4--|---6---6---6---6-|-----------------|
   1 & 2 & 3 & 4 &  1 & 2 & 3 & 4 &    1 & 2 & 3 & 4 &   1 & 2 & 3 & 4 & 


CHORUS

G|---1-------------|-----------------|-----------------|---6-------8-----|
D|-------4---------|---6-------------|---8-------------|-----------------|
A|-----------------|-----------------|-----------------|-4-------6-------|
E|-2---2-----------|-4---------------|-6---------------|-----------------|
   1 & 2 & 3 & 4 &   1 & 2 & 3 & 4 &   1 & 2 & 3 & 4 &   1 & 2 & 3 & 4 & 



| /  slide up
| \  slide down
| h  hammer-on
| p  pull-off
| ~  vibrato
| +  harmonic
| x  Mute note
Добавлено: 09.08.2015
Другие материалы по этой песне:
  • Аккорды и текст

Страница создана 09.08.2015
http://primanota.ru/chromeo/sexy-socialite-chords.htm
Привет, Гость.
Предлагаем пройти революционный курс по гитаре.
Подарок от PrimaNota.Ru, забирай!