PrimaNota.ru - самый крупный в мире бесплатный архив песенных текстов, аккордов, табулатур и нот


Chromecelica00 - Metal Riff - таба, видео

Регистрация Запомнить меня
Войти через:  Facebook Google Twitter Vk Yandex Mail.ru

Chromecelica00 - Metal Riff - таба, видео

Печатать
Просмотров: 101
Drop C Tuning (CGCFAD)
                                                                        
D||----------------------|----------------------|----------------------|
A||----------------------|----------------------|----------------------|
F||----------------------|----------------------|----------------------|
C||------------0----2----|-------2----3---------|--3----5---------3----|
G||--0-------------------|----------------------|-----------------1----|
C||--0----0--------------|--0--------------0----|------------0---------|


                                                                     
----------------------|----------------------|----------------------|
----------------------|----------------------|----------------------|
----------------------|----------------------|----------------------|
--3----3----3----3----|--5----5----5----5----|--5--------------0----|
--1----1----1----1----|--3----3----3----3----|--3----0--------------|
----------------------|----------------------|-------0----0---------|


                                                                     
----------------------|----------------------|----------------------|
----------------------|----------------------|----------------------|
----------------------|----------------------|----------------------|
--2---------2----3----|-------3----5---------|--3----3----3----3----|
----------------------|----------------------|--1----1----1----1----|
-------0--------------|--0--------------0----|----------------------|


                                                                     
----------------------|----------------------|----------------------|
----------------------|----------------------|----------------------|
----------------------|----------------------|----------------------|
--3----2----2----2----|--2----2--------------|--0----2---------2----|
--1----3----3----3----|--3----3----0---------|----------------------|
----------------------|------------0----0----|------------0---------|


                                                                     
----------------------|----------------------|----------------------|
----------------------|----------------------|----------------------|
----------------------|----------------------|----------------------|
--3---------3----5----|-------3----3----3----|--3----3----5----5----|
----------------------|-------1----1----1----|--1----1----3----3----|
-------0--------------|--0-------------------|----------------------|


                                                                     
----------------------|----------------------|----------------------|
----------------------|----------------------|----------------------|
----------------------|----------------------|----------------------|
--5----5----5---------|-------0----2---------|--2----3---------3----|
--3----3----3----0----|----------------------|----------------------|
-----------------0----|--0--------------0----|------------0---------|


                                                                     
----------------------|----------------------|----------------------|
----------------------|----------------------|----------------------|
----------------------|----------------------|----------------------|
--5---------3----3----|--3----3----3----2----|--2----2----2----2----|
------------1----1----|--1----1----1----3----|--3----3----3----3----|
-------0--------------|----------------------|----------------------|


                                                                      
----------------------|----------------------|-----------------------|
----------------------|----------------------|-----------------------|
----------------------|----------------------|-----------------------|
----------------------|----------------------|-----------------------|
--5--------------7----|------------8---------|-------10--------------|
-------0----0---------|--0----0---------0----|--0----------0----0----|


                                                                       
-----------------------|-----------------------|----------------------|
-----------------------|-----------------------|----------------------|
-----------------------|-----------------------|----------------------|
--8--------------------|-----------------------|----------------------|
-----------------12----|------------10----8----|--7----7----8----7----|
-------8----8----------|--8----8---------------|----------------------|


                                                                     
----------------------|----------------------|----------------------|
----------------------|----------------------|----------------------|
----------------------|----------------------|----------------------|
----------------------|----------------------|----------------------|
--5--------------3----|------------5---------|-------7--------------|
-------0----0---------|--0----0---------0----|--0---------0----0----|


                                                                     
----------------------|----------------------|----------------------|
----------------------|----------------------|----------------------|
----------------------|----------------------|----------------------|
--3----3----3----3----|--3----5----5----5----|--5----5--------------|
--1----1----1----1----|--1----3----3----3----|--3----3----5---------|
----------------------|----------------------|-----------------0----|


                                                                      
----------------------|-----------------------|----------------------|
----------------------|-----------------------|----------------------|
----------------------|-----------------------|----------------------|
----------------------|-----------------------|------------8---------|
-------7--------------|--8--------------10----|----------------------|
--0---------0----0----|-------0----0----------|--0----0---------8----|


                                                                       
-----------------------|-----------------------|----------------------|
-----------------------|-----------------------|----------------------|
-----------------------|-----------------------|----------------------|
-----------------------|-----------------------|----------------------|
-------12--------------|--10----8----7----7----|--8----7----5---------|
--8----------8----8----|-----------------------|-----------------0----|


                                                                     
----------------------|----------------------|----------------------|
----------------------|----------------------|----------------------|
----------------------|----------------------|----------------------|
----------------------|----------------------|------------3----3----|
-------3--------------|--5--------------7----|------------1----1----|
--0---------0----0----|-------0----0---------|--0----0--------------|


                                                                       
----------------------|----------------------|------------------------|
----------------------|----------------------|------------------------|
----------------------|----------------------|--7----9----10----12----|
--3----3----3----2----|--2----2----2----2----|------------------------|
--1----1----1----3----|--3----3----3----3----|------------------------|
----------------------|----------------------|------------------------|


                                                      
--------------------------|--------------------------|
--------------------------|--------------------------|
--15----14----12----14----|--12----------12----------|
--------------------------|--------15----------15----|
--------------------------|--------------------------|
--------------------------|--------------------------|


                                                      
--------------------------|--------------------------|
--------------------------|--------------------------|
--------------------------|--------------------------|
--14----14----15----14----|--12----10----12----14----|
--------------------------|--------------------------|
--------------------------|--------------------------|


                                                                               
--------------------------|--------------------------|------------------------|
--------------------------|--------------------------|------------------------|
--------------------------|--------------------------|--------------7----9----|
--------------------------|--------------------------|------------------------|
--13----13----13----13----|--13----15----15----15----|--15----15--------------|
--------------------------|--------------------------|------------------------|


                                                      
--------------------------|--------------------------|
--------------------------|--------------------------|
--10----12----15----14----|--12----14----12----------|
--------------------------|--------------------15----|
--------------------------|--------------------------|
--------------------------|--------------------------|


                                                      
--------------------------|--------------------------|
--------------------------|--------------------------|
--12----------------------|--------------------------|
--------15----14----14----|--15----14----12----10----|
--------------------------|--------------------------|
--------------------------|--------------------------|


                                                      
--------------------------|--------------------------|
--------------------------|--------------------------|
--------------------------|--------------------------|
--12----14----------------|--------------15----17----|
--------------------------|--15----17----------------|
--------------15----17----|--------------------------|


                                                    
--------------------------|-----------------------||
--------------------------|-----------------------||
--------------------------|-----------------------||
--------------------------|--17----19-------------||
--------------17----19----|--------------0--------||
--17----19----------------|--------------0--------||


http://www.youtube.com/user/ChromeCelica00
Добавлено: 10.04.2012
Другие материалы по этой песне:
  • Аккорды и текст

Страница создана 10.04.2012
http://primanota.ru/chromecelica00/metal-riff-chords.htm
Привет, Гость.
Предлагаем пройти революционный курс по гитаре.
Подарок от PrimaNota.Ru, забирай!