PrimaNota.ru - самый крупный в мире бесплатный архив песенных текстов, аккордов, табулатур и нот


Christopher Owens - Lysandres Theme - таба, видео

Регистрация Запомнить меня
Войти через:  Facebook Google Twitter Vk Yandex Mail.ru

Christopher Owens - Lysandres Theme - таба, видео

Печатать
Просмотров: 111
Авторы музыки: Christopher Owens
Авторы текста: Christopher Owens
     Am       Em      Am       Em
e|--------------------------------|
B|----1------------------1--------|
G|-2----2-0----0---0--2----2--0---|
D|-2---------2---2----2-------2---|
A|-0---------2---2----0-------2---|
E|--------------------------------|

    Am        Em     Am
e|-----------------------------3h6h3---0-------------|
B|----1------------------1----------------3--1--0----|
G|-2----2-0----0---0--2----2-------------------------|
D|-2---------2---2----2------------------------------|
A|-0---------2---2----0------------------------------|
E|---------------------------------------------------|

Play through all that twice and end on A
Добавлено: 16.10.2013
Другие материалы по этой песне:
  • Аккорды и текст

Страница создана 26.08.2013
http://primanota.ru/christopher-owens/lysandres-theme-chords.htm
Привет, Гость.
Предлагаем пройти революционный курс по гитаре.
Подарок от PrimaNota.Ru, забирай!