PrimaNota.ru - самый крупный в мире бесплатный архив песенных текстов, аккордов, табулатур и нот


Christopher Mclaren - You Make Me What I Am - таба, видео

Регистрация Запомнить меня
Войти через:  Facebook Google Twitter Vk Yandex Mail.ru

Christopher Mclaren - You Make Me What I Am - таба, видео

Печатать
Просмотров: 69
-------------------------------------------------------------------------------
                    You Make Me What I Am - Christopher McLaren
-------------------------------------------------------------------------------
Tabbed by: Christopher McLaren
E-mail: chris_mclaren948@hotmail.co.uk

YouTube: www.youtube.com/ChristopherMcLarenExperience
Soundcloud: soundcloud.com/christopher-mclaren948
Twitter: twitter.com/McLaren_Music

Tuning: Standard E A D G B E 

e|----------------------------------------------------------------------------------------------|
B|------3---1-----0-----1---1----------3---1-----0-----1---1-------------3---1-----0-----1---1--|
G|----0---0-----0-----0---0----------0---0-----0-----0---0-------------0---0-----0-----0---0----|
D|----------------------------x2----------------------------------------------------------------|
A|--3---------3-----3--------------2---------2-----2----------3--2--0----------0-----0----------|
E|----------------------------------------------------------------------------------------------|

e|--0-----0-----0----0-----0-------------0-----0-----0----0-----0--------0-----0-----0-----0----0------0--|
B|----3-----1-----0----1-----1---1---------3-----1-----0----1-----1---1----3-----1-----0-----1----3----5--|
G|------0-----0----------0-----0-------------0-----0----------0-----0--------0-----0-----------0----0-----|
D|----------------------------------x2--------------------------------------------------------------------|
A|--3----------------3-------------------2----------------2--------------0-----------------0--------------|
E|--------------------------------------------------------------------------------------------------------|

e|-0-----0-----0----0------0------0---0-----0-----0----0-----0------0----0-----0------0----0-----0------|
B|---5-----3-----3----1------1------1---1-----1-----1----1-----1------1----1-----1------1----1-----1----|
G|-----0-----0----------0------0----------0-----0----------0-----0-----------0-----0-----------0-----0--|
D|------------------------------------------------------------------------------------------------------|
A|------------------0------2------3---3-----------3----2------------3p2--0------------0h2--3------------|
E|------------------------------------------------------------------------------------------------------|

e|--0----0-----0------0----0-----0------0----0-----0------0----0-----0------0----0-----0------0----|
B|----1----1-----1------1----1-----1------1----1-----1------1----1-----1------1----1-----1------1--|
G|-----------0-----0-----------0-----0-----------0-----0-----------0-----0-----------0-----0-------|
D|-------------------------------------------------------------------------------------------------|
A|--3----2------------3p2--0------------0h2--3------------3----2------------3p2--0------------0h2--|
E|-------------------------------------------------------------------------------------------------|

e|--0-----0------0----0-----0------0----0-----0-----0----0------0------0----0------0------0------0------|
B|----1-----1------1----3-----3------3----1-----1-----1----1------1------1------1----1--------1----1----|
G|------0-----0-----------0-----0-----------0-----0----------0------0---------0--------0----0--------0--|
D|------------------------------------------------------------------------------------------------------|
A|--3------------3----5------------5----3----------------0------2------3----3-------------2-------------|
E|------------------------------------------------------------------------------------------------------|

e|--0------0------0------0------0------0------0------0---------0-----0------0------0------0------|
B|------1----1--------1----1--------1----1--------1----1---------1-------1----1--------1----1----|
G|----0--------0----0--------0----0--------0----0--------0-------------0--------0----0--------0--|
D|-----------------------------------------------------------------------------------------------|
A|--0-------------2-------------3-------------2----------------3p2---0-------------2-------------|
E|-----------------------------------------------------------------------------------------------|

e|--0------0------0-----0------0-----0------0------0------0----0-------------------------|
B|------1----1--------3---3--------1---1------1------1------1------3---1----1-----1---1--|
G|----0--------0----0-------0----0-------0------0------0---------0---0----0-----0---0----|
D|---------------------------------------------------------------------------------------|
A|--3-------------5------------3------------0------2------3----3---------3----3----------|
E|---------------------------------------------------------------------------------------|

e|--------------------------------------------------------0-----0-----0----0------0-----0----|
B|------3---1-----0-----1---1------3---1-----0-----1---1----3-----1-----0----1------1-----1--|
G|----0---0-----0-----0---0------0---0-----0-----0---0--------0-----0----------0------0------|
D|-------------------------------------------------------------------------------------------|
A|--3---------3-----3----------2---------2-----2----------0----------------0------2-----3----|
E|-------------------------------------------------------------------------------------------|

e|--0-----0-----0----0-----0------0----0-----0------0----0-----0------|
B|----1-----1-----1----1-----1------1----1-----1------1----1-----1----|
G|------0-----0----------0-----0-----------0-----0-----------0-----0--|
D|--------------------------------------------------------------------|
A|--3-----------3----2------------3p2--0------------0h2--3------------|
E|--------------------------------------------------------------------|

e|--0----0-----0------0----0-----0------0----0-----0------0----0-----0------0----0-----0------0----|
B|----1----1-----1------1----1-----1------1----1-----1------1----1-----1------1----1-----1------1--|
G|-----------0-----0-----------0-----0-----------0-----0-----------0-----0-----------0-----0-------|
D|-------------------------------------------------------------------------------------------------|
A|--3----2------------3p2--0------------0h2--3------------3----2------------3p2--0------------0h2--|
E|-------------------------------------------------------------------------------------------------|

e|--0-----0------0----0-----0------0----0-----0-----0----0------0------0----0-----0-----0---0-----0------|
B|----1-----1------1----3-----3------3----1-----1-----1----1------1------1----1-----1-----1---1-----1----|
G|------0-----0-----------0-----0-----------0-----0----------0------0-----------0-----0---------0-----0--|
D|-------------------------------------------------------------------------------------------------------|
A|--3------------3----5------------5----3----------------0------2------3----3-----------3---3------------|
E|-------------------------------------------------------------------------------------------------------|

e|--0----0-----0------0----0----0----0----0----0------0------0----0------0------0----0------0------0----|
B|----1----1-----1------1----1----1----1----1----1------1------1----1------1------1----1------1------1--|
G|-----------0-----0-------------------------------0------0-----------0------0-----------0------0-------|
D|----------------------------------------------------2------------------0------------------------------|
A|--3----3------------3----3----3----3----3----3-------------3----2-------------2----0------3------0----|
E|------------------------------------------------------------------------------------------------------|

e|--0------0------0----0------0------0----0------0-----0-----0------0------0----0------0------0----|
B|----1------1------1----1------1------1----1------1-----1-----1------1------1----1------1------1--|
G|------0------0-----------0------0-----------0------0-----------0------0-----------0------0-------|
D|---------0------------------2------------------0-------------------------------------0-----------|
A|--2-------------2----3-------------3----2-------------2----0------3------0----2-------------2----|
E|-------------------------------------------------------------------------------------------------|

e|--0------0------0----0------0------0----0------0------0------0------0------0------0------|
B|----1------1------1----1------1------1----1------1------1------3------5------3------1----|
G|------0------0-----------0------0-----------0------0------0------0------0------0------0--|
D|-----------------------------------------------------------------------------------------|
A|--0------2------3----0------2------3----0------2------3------5------7------5------3------|
E|-----------------------------------------------------------------------------------------|

e|--0------0------0----0-------0----------------------------------------------------------------------|
B|----1------1------1------1-------1----1-----------3---1-----0-----1---1------3---1-----0-----1---1--|
G|------0------0---------0---0---0---0------------0---0-----0-----0---0------0---0-----0-----0---0----|
D|----------------------------------------------------------------------------------------------------|
A|--0------2------3----3----------------3-------3---------3-----3----------3---------3-----3----------|
E|----------------------------------------------------------------------------------------------------|

e|-------------------------------------------------------------|
B|------3---1-----0------1---1-------3---1-----0-----1---------|
G|----0---0-----0------0---0-------0---0-----0-----0---0-------|
D|-------------------------------------------------------------|
A|--2---------2------2-----------3---------3-----3-------------|
E|---------------------------------------------------------/8--|

Any questions just ask.

Good luck and enjoy, peace.

************************************

| /   slide up
| \   slide down
| h   hammer-on
| p   pull-off
| ~   vibrato
| +   harmonic
| x   Mute note
| b   Bend
| pb  Pre-bend
| br  Bend release
| pbr Pre-bend release
| brb Bend release bend

************************************
Добавлено: 25.04.2016
Другие материалы по этой песне:
  • Аккорды и текст

Страница создана 25.04.2016
http://primanota.ru/christopher-mclaren/you-make-me-what-i-am-chords.htm
Привет, Гость.
Предлагаем пройти революционный курс по гитаре.
Подарок от PrimaNota.Ru, забирай!