PrimaNota.ru - самый крупный в мире бесплатный архив песенных текстов, аккордов, табулатур и нот


Christopher Mclaren - Weeping My Soul - таба, видео

Регистрация Запомнить меня
Войти через:  Facebook Google Twitter Vk Yandex Mail.ru

Christopher Mclaren - Weeping My Soul - таба, видео

Печатать
Просмотров: 54
-------------------------------------------------------------------------------
                             Weeping My Soul - Christopher McLaren
-------------------------------------------------------------------------------
Tabbed by: Christopher McLaren
E-mail: chris_mclaren948@hotmail.co.uk

YouTube: www.youtube.com/ChristopherMcLarenExperience
Soundcloud: soundcloud.com/christopher-mclaren948
Twitter: twitter.com/McLaren_Music

Tuning: Standard E A D G B E 

e|----------0------3-----2-----0-----------0------5-----3-----2------------0-------0------0-----0----|
B|--------0----0-----0-----0-----0-------0----0-----0-----0-----0--------0----0----10\8-8-8\7-7-7\5--|
G|------4--------4-----4-----4---------4--------4-----4-----4----------0--------0--------------------|
D|--0h2----------------------------0h2---------------------------------------------------------------|
A|----------------------------------------------------------------3/5--------------------------------|
E|---------------------------------------------------------------------------------------------------|

e|-------------0------------0-----------0--------------0-------3-----2-----0----|
B|-----------0------------0-----------0----0---------0----0------0-----0-----0--|
G|---------0------------0-----------4--------4-----4--------4------4-----4------|
D|----------------0-----------0-0h2------------0h2------------------------------|
A|--0--2/3----------0h5---------------------------------------------------------|
E|------------------------------------------------------------------------------|

e|----------0------5-----3-----2-----0-----0----0----7-----5-----3-----2-----3p2-2p0-----0------|
B|--------0----0-----0-----0-----0-----0-----0----0----0-----0-----0-----0-----0-------0---0----|
G|------4--------4-----4-----4-----4-----4-----4---------4-----4-----4-----4---------4-------0--|
D|--0h2-----------------------------------------------------------------------------------------|
A|----------------------------------------------------------------------------------------------|
E|-----------------------------------0-------------------------------------------0--------------|

e|--------0-----------0-----------0----------0-----------0-----------0-----------0------|
B|------0---0-------0---0-------0--0-------0---0-------0---0-------0---0-------0---0----|
G|----4-------4---4-------4---4------4---4-------4---4-------4---4-------4---4-------4--|
D|--------------4-----------0----------------------------------4-----------0------------|
A|-------------------------------------7-----------7------------------------------------|
E|--0-----------------------------------------------------------------------------------|

e|--------0-----------0------------0-----------0----------------------------------------------------|
B|------0---0-------0---0--------0---0-------0----------1-----3-----1------------0-----1-----0------|
G|----4-------4---4-------4----4-------4---4----------2---2-----2-----2------------0-----0-----0----|
D|--------------------------------------------------2-------2-----2-----2------0-----0-----0-----0--|
A|--7-----------7---------------------------------0--------------------------2----------------------|
E|---------------------------0-----------0---------------------------------3------------------------|

e|---------------------------------------------------------------------------------------------------|
B|--------1-----3-----1------------0-----1-----0------------1-----3-----1---------0-----1-----0------|
G|------2---2-----2-----2------------0-----0-----0--------2---2-----2---------------0-----0-----0----|
D|----2-------2-----2-----2------0-----0-----0-----0----2-------2-----2---------0-----0-----0-----0--|
A|--0--------------------------2----------------------0-----------------------2----------------------|
E|---------------------------3----------------------------------------------3------------------------|

e|---------------------------------------------------------------------------------------------------------|
B|--------1-----3-----1------------3------------5------------1------------3------------3------------5------|
G|------2---2-----2-----2--------0---0--------0---0--------2---2--------0---0--------0---0--------0---0----|
D|----2-------2-----2-----2----4-------4----5-------5----2-------2----4-------4----4-------4----5-------5--|
A|--0------------------------2------------3------------0------------2------------2------------3------------|
E|---------------------------------------------------------------------------------------------------------|

e|------------------------------------------------------------------------------------------------------|
B---------7------------8-----------8-----10-----8-----------8------------7-----8-----7-----------7------|
G|------0---0--------0---0-------0---0------0-----0-------0---0--------0---0-----0-----0-------0---0----|
D|----7-------7----9-------9---9-------9------9-----9---9-------9----7-------7-----7-----7---7-------7--|
A|--5------------7-----------7------------------------7------------5-----------------------5------------|
E|------------------------------------------------------------------------------------------------------|

e|--------------------------------------------------------------------------------|
B|--------5------------7------------8-----10-----8------------9-----10-----8------|
G|------0---0--------0---0--------0---0------0-----0--------0---0------0-----0----|
D|----5-------5----7-------7----9-------9------9-----9----9-------9------9-----9--|
A|--3------------5------------7-------------------------7-------------------------|
E|--------------------------------------------------------------------------------|

e|-------------------------------------------------------------------------------------------|
B|--------7-----8-----7------------7-----8-----7------------5------------7------------8------|
G|------0---0-----0-----0--------0---0-----0-----0--------0---0--------0---0--------0---0----|
D|----7-------7-----7-----7----7-------7-----7-----7----5-------5----7-------7----9-------9--|
A|--5------------------------5------------------------3------------5------------7------------|
E|-------------------------------------------------------------------------------------------|

e|--------------------------------------------------------------------------------------------------------|
B|--------8-----10-----8------------7------10-----8------------7-----8-----7-----------7-----8-----7------|
G|------0---0------0-----0--------0---0-------0-----0--------0---0-----0-----0-------0---0-----0-----0----|
D|----9-------9------9-----9----9-------9-------9-----9----7-------7-----7-----7---7-------7-----7-----7--|
A|--7-------------------------7--------------------------5-----------------------5------------------------|
E|--------------------------------------------------------------------------------------------------------|

e|-------------------------------------------------------------------------------------------------------|
B|--------5-----------5------------7-----------7------------1------------3------------5-----5-----5------|
G|------0---0-------0---0--------0---0-------0---0--------2---2--------0---0--------0---0-----0-----0----|
D|----5-------5---5-------5----7-------7---7-------7----2-------2----4-------4----5-------5-----5-----5--|
A|--3-----------3------------5-----------5------------0------------2------------3------------------------|
E|-------------------------------------------------------------------------------------------------------|

e|---------------------------------------------0-----------0-----------0-----------0--------|
B|--------7-----7-----7-----8-----8----------0---0-------0---0-------0---0-------0---0------|
G|----------0-----0-----0-----0-----0------9-------9---9-------9---9-------9---9-------9----|
D|------7-----7-----7-----7-----7-----7--------------9-----------------------9--------------|
A|---5-----------------------------------7-----------------------7--------------------------|
E|------------------------------------------------------------------------------------------|

e|--------0-----------0-----------0-----------0-----------0-----------0-----------0-----------0-------|
B|------0---0-------0---0-------0---0-------0---0-------0---0-------0---0-------0---0-------0---0-----|
G|----7-------7---7-------7---7-------7---7-------7---5-------5---5-------5---5-------5---5-------5---|
D|--------------7-----------------------7-----------------------5-----------------------5-------------|
A|--5-----------------------5-----------------------3-----------------------3-------------------------|
E|----------------------------------------------------------------------------------------------------|

e|--------0-----------0----------0-----------0------------0-----------0-----------0-----------0----|
B|------0---0-------0---0------0---0-------0---0--------0---0-------0---0-------0---0-------0---0--|
G|----4-------4---4------4---4-------4---4-------4----9-------9---9-------9---9-------9---9--------|
D|--------------4----------------------4------------------------9-----------------------9----------|
A|--2----------------------2------------------------7-----------------------7----------------------|
E|-------------------------------------------------------------------------------------------------|

e|--------0-----------0-----------0-----------0------------0-----------0-----------0-----------0-----|
B|------0---0-------0---0-------0---0-------0---0--------0---0-------0---0-------0---0-------0---0---|
G|----5-------5---5-------5---5-------5---5-------5----4-------4---4-------4---4-------4---4------4--|
D|--------------5-----------------------5------------------------4-----------------------4-----------|
A|--3-----------------------3------------------------2-----------------------2-----------------------|
E|---------------------------------------------------------------------------------------------------|

e|-----0--------0--------0--------0--------0--------0--------------0-------3-----2-----0----|
B|----0--------0--------0--------0--------0--------0-------------0----0------0-----0-----0--|
G|---4---x8---5---x8---4---x8---5---x8---7---x8---9---x8-------4--------0------4-----4------|
D|---------------------------------------------------------0h2------------------------------|
A|--2--------3--------2--------3--------5--------7------------------------------------------|
E|------------------------------------------------------------------------------------------|

e|----------0------5-----3-----2-----------0-------0------0-----0---------------0------------0---|
B|-------------0-----0-----0-----0-------0----0----10\8-8-8\7-7-7\5-----------0------------0-----|
G|------4--------0-----4-----4---------0--------0---------------------------0------------0-------|
D|--0h2---2------------------------------------------------------------------------0-------------|
A|---------------------------------3/5-------------------------------0--2/3----------0h5---------|
E|-----------------------------------------------------------------------------------------------|

e|-------------0---------------0------3-----2-----0-----------0------5-----3-----2-----------0-------|
B|-----------0----0----------0----0-----0-----0-----0-------0----0-----0-----0-----0-------0----0----|
G|---------4--------0------4--------4-----4-----4---------4--------4-----4-----4---------0--------0--|
D|--0--0h2-------------0h2----------------------------0h2--------------------------------------------|
A|-----------------------------------------------------------------------------------3/5-------------|
E|---------------------------------------------------------------------------------------------------|

e|--0------0-----0--------------0------------0-----------0--------------0-------3-----2-----0----|
B|--10\8-8-8\7-7-7\5----------0------------0-----------0----0---------0----0------0-----0-----0--|
G|--------------------------0------------0-----------4--------4-----4--------4------4-----4------|
D|---------------------------------0-----------0-0h2------------0h2------------------------------|
A|-------------------0--2/3----------0h5---------------------------------------------------------|
E|-----------------------------------------------------------------------------------------------|

e|----------0------3------2-----0------------0------3-----2-----0----|
B|--------0----0-----0------0-----0--------0----0-----0-----0-----0--|
G|------4--------0------4-----4----------4--------0-----4-----4------|
D|--0h2------------------------------0h2-----------------------------|
A|-------------------------------------------------------------------|
E|-------------------------------------------------------------------|

e|----------0------3-----2-----2-----------0--|
B|-------------0-----0-----0-----0-----0------|
G|------4--------0-----4-----4-----------4----|
D|--0h2---2-----------------------------------|
A|--------------------------------------------|
E|-----------------------------------------0--|

Any questions just ask.

Good luck and enjoy, peace.

************************************

| /   slide up
| \   slide down
| h   hammer-on
| p   pull-off
| ~   vibrato
| +   harmonic
| x   Mute note
| b   Bend
| pb  Pre-bend
| br  Bend release
| pbr Pre-bend release
| brb Bend release bend

************************************
Добавлено: 25.04.2016
Вам также может быть интересно:
Другие материалы по этой песне:
  • Аккорды и текст

Страница создана 25.04.2016
http://primanota.ru/christopher-mclaren/weeping-my-soul-chords.htm
Привет, Гость.
Предлагаем пройти революционный курс по гитаре.
Подарок от PrimaNota.Ru, забирай!