PrimaNota.ru - самый крупный в мире бесплатный архив песенных текстов, аккордов, табулатур и нот


Christopher Mclaren - Through The Eyes Of God - таба, видео

Регистрация Запомнить меня
Войти через:  Facebook Google Twitter Vk Yandex Mail.ru

Christopher Mclaren - Through The Eyes Of God - таба, видео

Печатать
Просмотров: 76
-------------------------------------------------------------------------------
                  Through The Eyes Of God - Christopher McLaren
-------------------------------------------------------------------------------
Tabbed by: Christopher McLaren
E-mail: chris_mclaren948@hotmail.co.uk

YouTube: www.youtube.com/ChristopherMcLarenExperience
Soundcloud: soundcloud.com/christopher-mclaren948
Twitter: twitter.com/McLaren_Music

Tuning: Standard E A D G B E 

e|---------------------------------------------------------------------------------|
B|--4----4-4----4-4----4-4----4----4----4-4----4----3----3-----3------3---3-----4--|
G|-----0------0------0------0---0-----0------0---0-----0-----0------0---0-----0----|
D|---------------------------------------------------------------------------------|
A|--6------6------6------6---------3------3---------1------1------3----------3-----|
E|---------------------------------------------------------------------------------|

e|------------------------------------------------------------------------------------|
B|--3--4---6--4--3--4---3--4---6--4--3--4--3--4---3--4---3--4--6--4-------3---3---4---|
G|----------------------------------------------------------------------0---0----0----|
D|------------------------------------------------------------------------------------|
A|--3--3---3--3--3--3---1--1---3--3--3--3--1--1---3--3---1--1--3--3---3---------3-----|
E|------------------------------------------------------------------------------------|

e|---------------------------------------------------------------------------------------|
B|------3---4-----6-----4---3---4-------3---4-----6-----4---3------3---1-----3----3---1--|
G|----0---0-----0-----0---0-----------0---0-----0-----0---0------0---0-----0----0---0----|
D|---------------------------------------------------------------------------------------|
A|--3---------3-----3---------3-----3---------3-----3----------1---------1----1----------|
E|---------------------------------------------------------------------------------------|

e|-------------------------------------3-------3------------3-------3----------1-------1---1--|
B|-----3---1-----3-----4---3-------4-------4-----4------4-------4----------3-------3-----3----|
G|---0---0-----0-----0---0-------0---0---0---0--------0---0---0---0------0---0---0---0--------|
D|--------------------------------------------------------------------------------------------|
A|--1--------1-----1-----------3--------------------3------------------1----------------------|
E|--------------------------------------------------------------------------------------------|

e|----------1-------1------------3-------3---3---------3-------3----------1-------1---1--|
B|------3-------3-----3------4-------4-----4-------4-------4----------3-------3-----3----|
G|----0---0---0---0--------0---0---0---0---------0---0---0---0------0---0---0---0--------|
D|---------------------------------------------------------------------------------------|
A|--1--------------------3---------------------3------------------1----------------------|
E|---------------------------------------------------------------------------------------|

e|----------1------1------------3---4---3---3---------3---4------3----------1---3---1---1--|
B|------3------3-----3------4-----4---4---4-------4-----4---4---4-------3-----3---3---3----|
G|----0---0--0---0--------0---0-----------------0---0----------0------0---0----------------|
D|-----------------------------------------------------------------------------------------|
A|--1-------------------3---------------------3---------------3-----1----------------------|
E|-----------------------------------------------------------------------------------------|

e|----------1---3---1-----------------------------------------------------------------------------|
B|------3-----3---3---3------3---6---3---6-3-6-----3---6---3---6-3-------3---3----3---3----3---3--|
G|----0---0----------------0---0-------0---------0---0-------0-------------0--------0--------0----|
D|------------------------------------------------------------------------------------------------|
A|--1---------------------------------------------------------------------------------------------|
E|-----------------------4---------4-----------4---------4---------4--3---------1--------3--------|

e|-----------------------------------------------------------------------------------------------------|
B|----3-----3-----3---3-----3-----3---3-----3------------3---3-----3---3------3---3----3-----3------3--|
G|------0-----0---------0-----0---------0-----0--------0---0-----0---0------0---0--------0-----0-------|
D|-----------------------------------------------------------------------------------------------------|
A|-----------------------------------------------------------------------------------------------------|
E|--4-----3-----1---3-----4-----4---6-----4------3/4-3---------1----------3----------4-----3------1----|


e|----------------3------3----------------------------------------------------6-----6--------------|
B|------3---4--------------------------3------3----1--3--4--------8-----8---8-----8-----8-6-----8--|
G|----0---0-----0-----0------0--------------0---0---------------0-----0---0-----0-----0-------0----|
D|-------------------------------------------------------------------------------------------------|
A|----------------------------------------------------1--3----6-----6-----------------------6------|
E|--3---------3-----3------3----3/4\3--3-----------4-----------------------------------------------|


e|----------------------------------------------------------------------------------|
B|------6---6--4-----3--4------6---6-----8------6---6--4-----3-4-------3---3-----4--|
G|----0---0--------0---------0---0-----0------0---0--------0---------3---3-----3----|
D|----------------------------------------------------------------------------------|
A|--6------------3---------5---------5------5------------3---------3---------3------|
E|----------------------------------------------------------------------------------|


e|---------------------------------------------------------------------------------------------------|
B|------3---3-----1---1-----3-----4------3----4-------6-----4---3-----4----3---4-------6------4---3--|
G|----3---3-----3----0-----0-----0------0---0----0---0----0---0---0--0---0---0-----0--0-----0---0----|
D|---------------------------------------------------------------------------------------------------|
A|--3---------3-----1-----3-----3------3-------3---3----3-----------3---3--------3---3----3----------|
E|---------------------------------------------------------------------------------------------------|

e|---------------------------|
B|------3-----1-----------1--|
G|----3-----3----------------|
D|---------------------------|
A|--3-----3------------3--3--|
E|---------------/3--1-------|

Any questions please ask.

Good luck and enjoy, peace. 

************************************

| /   slide up
| \   slide down
| h   hammer-on
| p   pull-off
| ~   vibrato
| +   harmonic
| x   Mute note
| b   Bend
| pb  Pre-bend
| br  Bend release
| pbr Pre-bend release
| brb Bend release bend

************************************
Добавлено: 25.04.2016
Другие материалы по этой песне:
  • Аккорды и текст

Страница создана 25.04.2016
http://primanota.ru/christopher-mclaren/through-eyes-of-god-chords.htm
Привет, Гость.
Предлагаем пройти революционный курс по гитаре.
Подарок от PrimaNota.Ru, забирай!