PrimaNota.ru - самый крупный в мире бесплатный архив песенных текстов, аккордов, табулатур и нот


Christopher Mclaren - Start Of A New Beginning - таба, видео

Регистрация Запомнить меня
Войти через:  Facebook Google Twitter Vk Yandex Mail.ru

Christopher Mclaren - Start Of A New Beginning - таба, видео

Печатать
Просмотров: 86
-------------------------------------------------------------------------------
                   Start Of A New Beginning - Christopher McLaren
-------------------------------------------------------------------------------
Tabbed by: Christopher McLaren
E-mail: chris_mclaren948@hotmail.co.uk

YouTube: www.youtube.com/ChristopherMcLarenExperience
Soundcloud: soundcloud.com/christopher-mclaren948
Twitter: twitter.com/McLaren_Music



Tuning: Standard E A D G B E

e|--0-----0--0-----0---------0-----0------0-----0------0-----0------0-----0------|
B|------0--------0---0-----------0---0--------0---0--------0---0--------0---0----|
G|----0--------0--------x4-----0-------0----0-------0----0-------0----0-------0--|
D|--2--------2---------------2------------4------------5------------4------------|
A|-------------------------------------------------------------------------------|
E|-------------------------------------------------------------------------------|

e|--0-----0------0-----0------0-----0-------0-------0------0----|
B|------0---0--------0---0--------0---0-------0-------0------0--|
G|----0-------0----0-------0----0-------0-------0-------0-------|
D|--2------------4------------5-------------7-------5------4----|
A|--------------------------------------------------------------|
E|--------------------------------------------------------------|

e|--0-----0------2-----2------3-----3------2-----2------0-----0------2-----2------3-----3------|
B|------0---0--------0---0--------0---0--------0---0--------0---0--------0---0--------0---0----|
G|----0-------0----0-------0----0-------0----0-------0----0-------0----0-------0----0-------0--|
D|--2------------4------------5------------4------------2------------4------------5------------|
A|---------------------------------------------------------------------------------------------|
E|---------------------------------------------------------------------------------------------|

e|--5------3------2-----0-----0------2-----2------3-----3------2-----2------|
B|----0------0------0-------0---0--------0---0--------0---0--------0---0----|
G|------0------0----------0-------0----0-------0----0-------0----0-------0--|
D|--7------5------4-----2------------4------------5------------4------------|
A|--------------------------------------------------------------------------|
E|--------------------------------------------------------------------------|

e|--0-----0------2-----2------3-----3------5------3------2-----0---0--0---0--0---0--0---0--|
B|------0---0--------0---0--------0---0------0------0------0-----0------0------0------0----|
G|----0-------0----0-------0----0-------0------0------0------------------------------------|
D|--2------------4------------5------------7------5------4-----2------2------2------2------|
A|-----------------------------------------------------------------------------------------|
E|-----------------------------------------------------------------------------------------|

e|----0---------0--------0--------0---------------0--------0--------0--------0------|
B|------0---------0--------0--------0---------------0--------0--------0--------0----|
G|--------0---------0--------0--------0---------------0--------0--------0--------0--|
D|--2-------------------------------------x2----------------------------------------|
A|------------3--------5--------7---------------2--------3--------5--------7--------|
E|----------------------------------------------------------------------------------|

e|----0---------0--------0--------0---------0--------0--------0------0-------0--------0--------0-----------0|
B|------0---------0--------0--------0---------0--------0--------0--------------0--------0--------0-------0--|
G|--------0---------0--------0--------0---------0--------0--------0--------------0--------0--------0---0----|
D|--2-------------------------------------2-----------------------------------------------------------------|
A|------------3--------5--------7------------------3--------5--------7-----2--------3--------5-------7------|
E|----------------------------------------------------------------------------------------------------------|

e|--0------0------0------0------0------0------0----0------*12----------------------------------*12-----*5--|
B|----0------0------0------0------0------0------0-----------------*12-----------------------*12------*5----|
G|------0------0------0------0------0------0------------------*7----------*12------------*12-------*5------|
D|--------------------------------------------------------------------*7--------------*12------------------|
A|--7------5------3------2----------------------------------------------------*7---*12---------------------|
E|------------------------------3------2------3p2--0-------------------------------------------------------|


e|--------------*12-----7-----7----5-----5---3-----3----5-----5------7-----7------5-----5------3-----3----|
B|-----*12---*12------------0---0------0--0------0---0------0---0--------0---0--------0---0--------0---0--|
G|--*12---*12-------------0----------0---------0----------0-------0----0-------0----0-------0----0--------|
D|--------------------------------------------------------------------------------------------------------|
A|----------------------7----------7---------5----------5------------7------------5------------3----------|
E|--------------------------------------------------------------------------------------------------------|

e|--5-----5----2-----2----3-----3----5-----5----7-----7----5-----5----3-----3----3-----3----2-----2----|
B|------0---0------0---0------0---0------0---0------0---0------0---0------0---0------0---0------0---0--|
G|----0----------0----------0----------0----------0----------0----------0----------0----------0--------|
D|-----------------------------------------------------------------------------------------------------|
A|--5----------2----------3----------5----------7----------5----------5----------3----------3----------|
E|-----------------------------------------------------------------------------------------------------|

e|--3-----3----5-----5----3-----3----2-----2----3-----3----2-----2----3-----3------2-----2------3-----3----|
B|------0---0------0---0------0---0------0---0------0---0------0---0------0---0--------0---0--------0---0--|
G|----0----------0----------0----------0----------0----------0----------0-------0----0-------0----0--------|
D|---------------------------------------------------------------------------------------------------------|
A|--3----------5----------5----------3----------3----------3----------2------------2------------0----------|
E|---------------------------------------------------------------------------------------------------------|

e|--5-----5------0-----0------2-----2----3-----3----2-----2------0-----0------2-----2----3------3---|
B|------0---0--------0---0--------0---0------0---0------0---0--------0---0--------0---0------0---0--|
G|----0-------0----0-------0----0----------0----------0-------0----0-------0----0----------0--------|
D|--------------------------------------------------------------------------------------------------|
A|--0------------3------------3----------3----------3------------5------------5----------5----------|
E|--------------------------------------------------------------------------------------------------|

e|--5-----5------5-----5----7-----7----3-----3----5-----5----2-----2----3-----3----3-----3----2-----2----|
B|------0---0--------0---0------0---0------0---0------0---0------0---0------0---0------0---0------0---0--|
G|----0-------0----0----------0----------0----------0----------0----------0----------0----------0--------|
D|-------------------------------------------------------------------------------------------------------|
A|--5------------7----------7----------5----------5----------3----------3----------2----------2----------|
E|-------------------------------------------------------------------------------------------------------|

e|--3-----3----5-----5-----0-----0----2-----2----3-----3----2-----2----0-----0----2-----2----3-----3----|
B|------0---0------0---0-------0---0------0---0------0---0------0---0------0---0------0---0------0---0--|
G|----0----------0-----------0----------0----------0----------0----------0----------0----------0--------|
D|------------------------------------------------------------------------------------------------------|
A|--3----------5-----------3----------3----------3----------3----------2----------2----------2----------|
E|------------------------------------------------------------------------------------------------------|



e|--5-----5----5-----5----7-----7----7-----7----7-----7----7-----7----7-------7-----7----5-----5----|
B|------0---0------0---0------0---0------0---0------0---0------0---0--------------0---0------0---0--|
G|----0----------0----------0----------0----------0----------0------------------0----------0--------|
D|--------------------------------------------------------------------------------------------------|
A|--2----------3----------5----------7----------7----------7----------7-----------------------------|
E|----------------------------------------------------------------------------0----------0----------|


e|--3-----3----2-----2-----3----2---0--0---0-----*12--|
B|------0---0------0---0------------------------------|
G|----0----------0------------------------------------|
D|----------------------------------2--0--/2----------|
A|----------------------------------------------------|
E|--0----------0------------------------------0-------|

Any questions please ask.

Good luck and enjoy, peace.

************************************

| /   slide up
| \   slide down
| h   hammer-on
| p   pull-off
| ~   vibrato
| *   harmonic
| x   Mute note
| b   Bend
| pb  Pre-bend
| br  Bend release
| pbr Pre-bend release
| brb Bend release bend

************************************
Добавлено: 17.04.2016
Другие материалы по этой песне:
  • Аккорды и текст

Страница создана 17.04.2016
http://primanota.ru/christopher-mclaren/start-of-a-new-beginning-chords.htm
Привет, Гость.
Предлагаем пройти революционный курс по гитаре.
Подарок от PrimaNota.Ru, забирай!