PrimaNota.ru - самый крупный в мире бесплатный архив песенных текстов, аккордов, табулатур и нот


Christopher Mclaren - So Fragile - таба, видео

Регистрация Запомнить меня
Войти через:  Facebook Google Twitter Vk Yandex Mail.ru

Christopher Mclaren - So Fragile - таба, видео

Печатать
Просмотров: 84
-------------------------------------------------------------------------------
                             So Fragile - Christopher McLaren
-------------------------------------------------------------------------------
Tabbed by: Christopher McLaren
E-mail: chris_mclaren948@hotmail.co.uk

Tuning: Standard E A D G B E 

YouTube: www.youtube.com/ChristopherMcLarenExperience
Soundcloud: soundcloud.com/christopher-mclaren948
Twitter: twitter.com/McLaren_Music

e|----------------------------------------------------------------|
B|--7---5--5---4--4---5--5----7---5--5---4--4---5--5----5---4--4--|
G|----------------------------------------------------------------|
D|----------------------------------------------------------------|
A|--4------4------4------4----4------4------4------4----2------2--|
E|----------------------------------------------------------------|

e|-----------------------------------------7---5---4--------------------5---4---0----------|
B|--7---5--5---4--4---5--5----7---5--5-----------------5----5--4--4------------------5--4--|
G|-----------------------------------------------------------------------------------------|
D|-----------------------------------------------------------------------------------------|
A|--4------4------4------4----4------4---4---4---4---4------2-----2---2---2---2---------2--|
E|-----------------------------------------------------------------------------------------|

e|------------7--5-5--4-4---4-------------4/5--4--0----------------------9--7--5--4h5-5--4-4--|
B|--7--5--5-------------------7--5--4-4---------------5--4-----7--5--5------------------------|
G|--------------------------------------------------------------------------------------------|
D|--------------------------------------------------------------------------------------------|
A|--4-----4---4----4----4--------2----2---2-------2------2-----4-----4---4-----4------4----4--|
E|--------------------------------------------------------------------------------------------|

e|--2--4--5--4/5--5--4--0---------2--0--4--2-----------------0--2--4--5\4--4--2--0--|
B|--------------------------5--4--------------5p4--4--5--4--------------------------|
G|----------------------------------------------------------------------------------|
D|----------------------------------------------------------------------------------|
A|--2-----2-------2-----2------2-----4-----4-------4-----4---2-----2-------2-----2--|
E|----------------------------------------------------------------------------------|

e|--0--4--0--4p2--2---4--0---------------------------------9--7--5--7p5--5--4--4--|
B|------------------------------2--4--5--7\5--5--4--0--4--------------------------|
G|--------------------------------------------------------------------------------|
D|--------------------------------------------------------------------------------|
A|--4-----4-------4------4---2--0-----0-------2------------4-----4-------4-----4--|
E|--------------------------------------------------------------------------------|

e|--7--7--9--11--11/12--12--11--9---11--9---7--5--5--4h5--5--4--4---4--2-------------------|
B|-----------------------------------------------------------------------5--4/5--5--4--2---|
G|-----------------------------------------------------------------------------------------|
D|-----------------------------------------------------------------------------------------|
A|--------------------------------------------------------4-----4---2------------4-----4---|
E|-----7------7----------9------9-----------7-----7----------------------------------------|

e|----------------------------------------2--5/7--5--4--4--4--5----------------------------2---------------|
B|--5--4p2--2-0-------2--4--5--4h5--4--5----------------------------------2---4--5---4---5------4--5p4--2--|
G|----------------2--2-------------------------------------------------------------------------------------|
D|---------------------------------------------------------------------------------------------------------|
A|--------------0---0-------0-------2-----2-------4-----4-----4--2--------0----------2----------4-------4--|
E|------------------------------------------------------------------5--4-----------------------------------|

e|-------------------0---0--2h4p2p0------0h2---2---0--------------------------------|
B|--2--0--4---4p2p0--------------------0-----0-------0--2--4--5--5--5--4--2--2h4p2--|
G|----------------------------------------------------------------------------------|
D|----------------------------------------------------------------------------------|
A|-------------------2---------------2------------------------------4--------4------|
E|----------------------------------------------------------------------------------|

e|---------------------------------------------------------2--5--4--5--4h5p4---4--7---|
B|--2---------5--4--5--5--4--5--5--4--2--2-------2-4-5-4-5----------------------------|
G|------------------------------------------------------------------------------------|
D|------------------------------------------------------------------------------------|
A|-----4p2h4--0--------2--------4--------4--2h4--0-----2------4-----------------------|
E|------------------------------------------------------------------------------------|

e|--7--5--7--9--7--9--11--12-12--12--11--9--9h11p9--9-11--7--5--7--5--4--5--5--4--2h4---2--|
B|-----------------------------------------------------------------------------------------|
G|-----------------------------------------------------------------------------------------|
D|-----------------------------------------------------------------------------------------|
A|--------------------------------------------------------------------------4-----4--------|
E|--7--------7-------------------9---9------9-------------7--------7-----------------------|

e|--4-2----2-------------------------------------------------------------------------------------------|
B|------4----5-4----------5--4--2--2h4p2--4-2---2--0--2--5--4--2--5--4--5--5--4--5---------5--4--2--2--|
G|------------------6---6------------------------------------------------------------6---6-------------|
D|-----------------------------------------------------------------------------------------------------|
A|--4------2-----4----4---4--4-----4------------------------------0--------2-------4---4---4--4-----4--|
E|-----------------------------------------------------------------------------------------------------|

e|-----------------------2--------2---4-2---5-4-2-------7---5---4------------------------|
B|--2--0--4----2--4--5------5--4----------5-------------------------------2----2/5\4--4--|
G|------------2--------------------------------------------------------------------------|
D|---------------------------------------------------------------------------------------|
A|-----------0-------0---2-----2------4-----2-----2/4-4---4---4------2----0-----------2--|
E|---------------------------------------------------------------------------------------|

e|---------------------------2----------4--2------------------4--2----5--4--2--|
B|--5-----2----5---4--5----0----------2------5--4--2--4-5---4------5-----------|
G|-------2---------------------------------------------------------------------|
D|-----------------------------------------------------------------------------|
A|------0----------------2-------2--0-----------0---------2--------------------|
E|-----------------------------------------------------------------------------|

e|------4--2-------------------2----2h4p2-0--4--7------7-------5-------4-------5--|
B|----2------5--2--4--4-5----0---4-----------------5-------4-------5-------4------|
G|--------------------------------------------------------------------------------|
D|--------------------------------------------------------------------------------|
A|--0-----------0----------2-----------------------4-------2-------4-------2------|
E|--------------------------------------------------------------------------------|

e|--------7-7-7-----------5-5-5-------------4-4-4-------------5-5-5-------|
B|--5-5-5-------5-5-4-4-4-------5-5---2-2-2-------5-5---4-4-4-------4/5---|
G|-----------------------------------2-----------------4------------------|
D|------------------------------------------------------------------------|
A|--4-----4---------2---------------0-----------------2-------------------|
E|------------------------------------------------------------------------|

e|--------4-4-4-----------2-2-2-------------2-2---------------4-2p0-0-4/7-7------|
B|--5-5-5-------5-5-4-4-4-------4-4---2-2-2-----5-5---4-4-4-4---------------5-5--|
G|-----------------------------------2---------------4---------------------------|
D|-------------------------------------------------------------------------------|
A|--4---------------2---------------0-------0-------2-------------------------4--|
E|-------------------------------------------------------------------------------|

e|--7-------4-5-4h5p4p0--4---------------4-4-----------------5-5-5---------|
B|----5\4------------------5---2---2-2-2-----5-5-----4-4-4-4-------7----5--|
G|----------------------------2--------------------4------------------6----|
D|-------------------------------------------------------------------------|
A|------2--------------------0-----------0-------2-------------------4-----|
E|-------------------------------------------------------------------------|

e|--------------------------------*4--*2-----*4----------*19---*21--|
B|--7-7---5-5---4-4---5-5----------------*5-----*5-*4---------------|
G|------------------------6-----------------------------------------|
D|------------------------------------------------------------------|
A|----4-----4-----4-----4----4--------------------------------------|
E|------------------------------------------------------------------|

Any questions just ask.

Good luck and enjoy, peace.

************************************

| /   slide up
| \   slide down
| h   hammer-on
| p   pull-off
| ~   vibrato
| *   artificial harmonic
| x   Mute note
| b   Bend
| pb  Pre-bend
| br  Bend release
| pbr Pre-bend release
| brb Bend release bend

************************************
Добавлено: 17.04.2016
Другие материалы по этой песне:
  • Аккорды и текст

Страница создана 17.04.2016
http://primanota.ru/christopher-mclaren/so-fragile-chords.htm
Привет, Гость.
Предлагаем пройти революционный курс по гитаре.
Подарок от PrimaNota.Ru, забирай!