PrimaNota.ru - самый крупный в мире бесплатный архив песенных текстов, аккордов, табулатур и нот


Christopher Mclaren - Never Forgotten - таба, видео

Регистрация Запомнить меня
Войти через:  Facebook Google Twitter Vk Yandex Mail.ru

Christopher Mclaren - Never Forgotten - таба, видео

Печатать
Просмотров: 72
-------------------------------------------------------------------------------
                      Never Forgotten - Christopher McLaren
-------------------------------------------------------------------------------
Tabbed by: Christopher McLaren
E-mail: chris_mclaren948@hotmail.co.uk

YouTube: www.youtube.com/ChristopherMcLarenExperience
Soundcloud: soundcloud.com/christopher-mclaren948
Twitter: twitter.com/McLaren_Music

Tuning: Standard E A D G B E 

e|--------------------------------------------------------------------------------|
B|--/3--1------------------/3--1--------------1--/3------------------/3--1--------|
G|--------3--3-----3----3--------3--2---2--3---------3--3-----3----3--------3--2--|
D|---------------3----3-------------------------------------3----3----------------|
A|-----------1----------------------0-------------------1----------------------0--|
E|--------------------------------------------------------------------------------|

e|--------------------------------------------------------------------------------------------|
B|--------1--3/4--3---------------------------------------------------------------------------|
G|--2--3-------------0----2--3--3/5--3--2----------3--2--3-----3-----3---------3-----3--------|
D|-----------------------------------------3-----3---------------0-----0---0-----0-----0---0--|
A|--------------------------------------------------------------------------------------------|
E|-------------------3---------------------1---1-------------3-----3-----3---3-----3-----3----|

e|---------------------------------------------------------------------------------------------------|
B|----------------------------------------------------------------------------------3-----1-----1h3--|
G|----2-----2-------3-----2-----2h3---3-----3-------5-----3-----2h3---2-----2---------2-----2--------|
D|------0-----0---0---0-----0-----------0-----0---0---0-----0-----------0-----0---0-----0-----0------|
A|---------------------------------------------------------------------------------------------------|
E|--1-----1-----1-------1-----1-----3-----3-----3-------3-----3-----1-----1-----1--------------------|

e|-----------------------------------------------------------------------------------------------------|
B|----------3-----1-------------------------3-----1-----1---3/4---4/3---------3-----1------------------|
G|----3---3---3-----3---3---2---2h3---2---2---2-----2-----2-----2---------0-----0-----0---0---2---2h3--|
D|------3-------3-----3---3---3---------3-------3-----3-----------------0---0-----0-----0---0---0------|
A|--1-------------------------------0------------------------------------------------------------------|
E|--------------------------------------------------------------------3--------------------------------|

e|-----------------------------------------------------------------------------------------------|
B|----------3-----1------------------------------------------------------3-----1-----------------|
G|----2---2---2-----2---2---3---2h3-----0---2----3----2--3/5-2~----2---2---2-----2---2---2/3--2--|
D|------0-------0-----0---0---0-------0---0----0----0----------------0-------0-----0---0---------|
A|-----------------------------------------------------------------------------------------------|
E|--1-------------------------------3----------------------------1-------------------------------|

e|--------------------------------------------------------------------------------------------|
B|--------------------------------------------------------------------------------------------|
G|------0-----2------3----3-----3-----2-----0----0------2-----3------2----2------2-----2------|
D|----0-----0------3----3-----0-----0-----5----3------3-----3------3----3------3-----3-----2--|
A|---------------1----------------------3-----------1-----3------5-----------3-----3-----3----|
E|--3-----1-----------------3-----1-----------------------------------------------------------|

e|---------------------------------------------------------------------------------------|
B|---------------------------------------------------------------------------------------|
G|------2-----2----------2-----2----------2-----2----------2-----2----------2-----2------|
D|----3-----3-----3----3-----3-----3----3-----3---3------3-----3---3------3-----3---3----|
A|--1-----1-----1----3-----3-----3----5-----5-------5--3-----3-------3--1-----1-------1--|
E|---------------------------------------------------------------------------------------|

e|-----------------------------------------------------------------------------------------------------|
B|--------------------------------------------------3-----1--------------------------------------------|
G|------2-----2---------0-----0---------0-----0-------0-----0---3-----------2---------3---------2------|
D|----3-----3-----3---3-----3-----3---2-----2-----2-----2-----2---2-------3---------3---------3-----3--|
A|--3-----3-----3---3-----3-----3---3-----3-----3-------------------3---3-----3---3-----3---3-----3----|
E|-----------------------------------------------------------------------------------------------------|

e|-------------------------------------------------------------------------------------------|
B|----------------3-----------------------1---------------------1---------------------3------|
G|------2-----3-----------------2-----3-----3----------0---2-3----3----------2---2-3----3----|
D|----0-----0---------0-------0-----0---------0------0---0----------0------0---0----------0--|
A|--0-----0---------0---0---1-----1-------------1--------------------------------------------|
E|-------------------------------------------------3------------------3--1-------------------|

e|---------------------------------------------------------------------------------------|
B|------3-----1----------------------3-----1--------------------3-----1------------------|
G|----0---0-----0---3-----2--------0---0-----0---3-----2----------0-----0---3-----2------|
D|----------0-----0---0-----0------------0-----0---0-----0----------0-----0---0-----0----|
A|------------------------------------------------------------1-----------------1-----1--|
E|--3-------------------3-----3--1-------------------1-----1-----------------------------|

                                 Speed up gradually 
                             |-----------------------|
e|--------------------------------------------------------------------------------|
B|----3-----1-----------------------------1-----3---------3-----1-----------------|
G|------0-----0---3-----2-----2-----3-------0-----0-----0---0-----0---3-----2-----|
D|--------0-----0---0-----0-----0-----0-------0-----0---------0-----0---0-----0---|
A|--0-----------------0-----0-----0-----0---------------------------------0-----0-|
E|----------------------------------------------------3---------------------------|

e|-------------------------------------------------------------------------------------|
B|------3-----1--------------------3-----1--------------------3-----1------------------|
G|----0---0-----0---3-----2----------0-----0---3-----2----------0-----0---3-----2------|
D|----------0-----0---0-----0----------0-----0---0-----0----------0-----0---0-----0----|
A|----------------------0-----0--1-----------------1-----1--0-----------------0-----0--|
E|--1----------------------------------------------------------------------------------|

e|--------------------------------------------------------------------------------------------------|
B|----------------1-----3-----4-----------3---------3-------3---------1-----3-------1----3-------3--|
G|----2-----3-------0-----0-----0-------2-----2---2---2---2-----2---3----2----2---3----2-------2----|
D|------0-----0-------0-----0-----0---0-----0---0-------0-----0---0--------------------------0------|
A|--0-----0-----0-------------------0------------------------------------------------------0--------|
E|--------------------------------------------------------------------------------------------------|

Any questions just ask.

Good luck and enjoy, peace.

************************************

| /   slide up
| \   slide down
| h   hammer-on
| p   pull-off
| ~   vibrato
| +   harmonic
| x   Mute note
| b   Bend
| pb  Pre-bend
| br  Bend release
| pbr Pre-bend release
| brb Bend release bend

************************************
Добавлено: 17.04.2016
Другие материалы по этой песне:
  • Аккорды и текст

Страница создана 17.04.2016
http://primanota.ru/christopher-mclaren/never-forgotten-chords.htm
Привет, Гость.
Предлагаем пройти революционный курс по гитаре.
Подарок от PrimaNota.Ru, забирай!