PrimaNota.ru - самый крупный в мире бесплатный архив песенных текстов, аккордов, табулатур и нот


Christopher Mclaren - Lost Part I - таба, видео

Регистрация Запомнить меня
Войти через:  Facebook Google Twitter Vk Yandex Mail.ru

Christopher Mclaren - Lost Part I - таба, видео

Печатать
Просмотров: 52
-------------------------------------------------------------------------------
                      Lost: Part I - Christopher McLaren
-------------------------------------------------------------------------------
Tabbed by: Christopher McLaren
E-mail: chris_mclaren948@hotmail.co.uk

YouTube: www.youtube.com/ChristopherMcLarenExperience
Soundcloud: soundcloud.com/christopher-mclaren948
Twitter: twitter.com/McLaren_Music

Tuning: Standard E A D G B E 

Play at a slow "ambient" pace. But essentially set your own pace, BYOB.

e|--12----14----15----17----12----14----15----14----12----14-14-----15-15----14-14----12----14-14--|
B|-------------------------------------------------------------------------------------------------|
G|-------------------------------------------------------------------------------------------------|
D|-------------------------------------------------------------------------------------------------|
A|-------------------------------------------------------------------------------------------------|
E|--------------------------------------------------12-------12--------12-------12----10-------10--|

e|--15-15----14-14----12----14-14----15-15----14-14----12----14-14----15-15----17-17--|
B|------------------------------------------------------------------------------------|
G|------------------------------------------------------------------------------------|
D|------------------------------------------------------------------------------------|
A|------------------------------------------------------------------------------------|
E|-----10-------10----12-------12-------12-------12----10-------10-------10-------10--|

e|--10---12-12----10----8-7---8-7----------10-7---8-7---10-7---8--7h8-7--|
B|-----------------------------------------------------------------------|
G|-----------------------------------------------------------------------|
D|-----------------------------------------------------------------------|
A|-----------------------------------------------------------------------|
E|---8-------8----------8-------8----7h8----7-------7---7----------------|

e|--10-7---8-7----10-7---8--7h8p7---7-8---10-7---8-7--------10-7---8-7----12---10---8---7----------|
B|------------------------------------------------------------------------------------------10-10--|
G|-------------------------------------------------------------------------------------------------|
D|-------------------------------------------------------------------------------------------------|
A|--7--------7-----7--------7----------------------------------------------7-----------------------|
E|-----------------------------------------8-------8---7h8---7-------7-----------------------------|

e|----------------------------------------------------------------------------------|
B|--8--8---7--7---8-\5-5---7-7--8----10---8---8---7---7---8---7---7---10--10--8--7--|
G|----------------------------------------------------------------------------------|
D|----------------------------------------------------------------------------------|
A|------------7--------5-----7--------7-------7-------7---5-------5--------5--------|
E|-----7----------------------------------------------------------------------------|

Double the pace to a moderate tempo here.

e|----------------------------------------------------------------|
B|--8--7-7--10-10--7-7--8--7-7--10-10--7-7--7--5-5---5--7-5-7--8--|
G|----------------------------------------------------------------|
D|----------------------------------------------------------------|
A|--7----7------7----7--5----5------5----5--3----3-------------5--|
E|----------------------------------------------------------------|

e|-------------------------------------------------------------5--3--2---------------------|
B|--8--7-7--10-10--7-7--8--7-7--10-10--8-7--7--5-5---5--7-5-7-----------8--8-7-7-5-5--7-7--|
G|-----------------------------------------------------------------------------------------|
D|-----------------------------------------------------------------------------------------|
A|--7----7------7----7--5----5------5-------3----3-------------2-----------7---5---3----5--|
E|-----------------------------------------------------------------------------------------|

e|--5-7-7-8-7------7-5--------5-7-7-8-7-----7-5--------5-7-7-8-7------7--5---------5--8-7-------------|
B|------------8-8------8\7-7-----------7-8------8-7-7------------8-8-------8-7--7----------10-8-7\-3--|
G|----------------------------------------------------------------------------------------------------|
D|----------------------------------------------------------------------------------------------------|
A|--------------7----------5-------------7----------5--------------7------------5---------------------|
E|----------------------------------------------------------------------------------------------------|

e|--3-2---------------------5-7----------------------------------7-5-7/8-7--8--10-8-7--------7-5-3-2-3--|
B|------3---3-3-3-3-5-8-7-8-----8-8--7-7---7/8\7-8---7/8-8--7-7-----------------------10-7-8------------|
G|------------------------------------------------------------------------------------------------------|
D|------------------------------------------------------------------------------------------------------|
A|----------------3-----5---------7----7---5-------------3----3--5--------------------------------------|
E|------------------------------------------------------------------------------------------------------|

e|--5--5--3--2h3-2---3-3-3-3p2-2-2p0-0-------12-121212-12-121212-------14-141414-14-141414--|
B|-----------------------------------------0-------------------------0----------------------|
G|---------------------------------------0-------------------------0------------------------|
D|------------------------------------------------------------------------------------------|
A|-----2--2------2---------2-----2----------------------------------------------------------|
E|-------------------------------------0-------------------------0--------------------------|

e|--------15-151515-15-151515-------17-171717-17-171717-------12-121212-12-121212--|
B|------0-------------------------0-------------------------0----------------------|
G|----0-------------------------0-------------------------0------------------------|
D|---------------------------------------------------------------------------------|
A|---------------------------------------------------------------------------------|
E|--0-------------------------0-------------------------0--------------------------|

e|--------14-141414-14-141414-------15-151515-15-151515-------17-171717-17-171717--|
B|------0-------------------------0-------------------------0----------------------|
G|----0-------------------------0-------------------------0------------------------|
D|---------------------------------------------------------------------------------|
A|---------------------------------------------------------------------------------|
E|--0-------------------------0-------------------------0--------------------------|

e|--------19-191919-19-191919-------19-191919-19-191919-------19-191919-19-191919--|
B|------0-------------------------0-------------------------0----------------------|
G|----0-------------------------0-------------------------0------------------------|
D|---------------------------------------------------------------------------------|
A|---------------------------------------------------------------------------------|
E|--0-------------------------0-------------------------0--------------------------|

e|--------*12--*19--12--14-15-14--12-14-15-14--12---8------7--7-8-10--10p8p7-7------7--8-8-----------7--|
B|------0----------------------------------------------0--------------------------0--------0-------0----|
G|----0--------------------------------------------------0----------------------0------------0---0------|
D|------------------------------------------------------------------------------------------------------|
A|--------------------------------------------------7------------------------7-----------9-----7--------|
E|--0-----------------------------------------------0------0-----------------0--------------------------|

e|------7/8-8------------7-------7-------------7-----7-8-----7---7--------5-----3---3-----3-5-----3----|
B|--0----------0-------0---0---0---0---0-----0---0-------0-----0---0---0----0-----0---0-------0-----0--|
G|----0----------0---0-------0-------0-----0-------0-------0---------0--------0---------0-------0------|
D|-----------------------------------------------------------------------------------------------------|
A|----------9------7-------------9-------7-------------5---------5--------3---------3-------3----------|
E|-----------------------------------------------------------------------------------------------------|

e|--3-----3--3-----2---2---5---7---8-----7--10-10-----7--8-8-----7--10-10-----7--10-10-----7--8-8-----7--10-|
B|----0--------0-----0---0---0---0---0------------0----------0------------0------------0----------0---------|
G|------0--------0---------------------0------------0----------0------------0------------0----------0-------|
D|----------------------------------------------------------------------------------------------------------|
A|--3--------2---------2---3---5---7------------7----------7------------7-----------------------------------|
E|-----------------------------------------------------------------------------------8----------8-----------|

e|--10-----7--8-8-----7--10-12-----7--10-10-----7--10-12-----7--10-10-----7--10-12-----7--10-10-----7--|
B|-----0----------0------------0------------0------------0------------0------------0------------0------|
G|-------0----------0------------0------------0------------0------------0------------0------------0----|
D|-----------------------------------------------------------------------------------------------------|
A|---------------------------7------------7-------------------------7----------------------------------|
E|---7----------7----------------------------------------------------------------8------------8--------|

e|--10-10-----7--8-8-----7--10-12-----10-----8--7--10-10-----8--7------7-----5-----3-----2------|
B|--------0----------0------------0------0----0----------0----0----------0-----0-----0-----0----|
G|----------0----------0------------0------0---------------0---------------0-----0-----0-----0--|
D|----------------------------------------------------------------------------------------------|
A|------------------------------7---------------7------7--------7-------------------------------|
E|------7----------7-----------------------------------------------8\7-7-----5-----3-----2------|

e|--------------------0-----------0-----------0-------------0---------------0---2-3-2h3p2p0--0--|
B|----------------0-----------0-----------0-------0---0---0---------------0---------------------|
G|------------0-----0-----0-----0-----0-----0---0---0---0---------------0--------------------9--|
D|--------2-----2-------2---2-------2---2-----------------------------2-------------------------|
A|----2-----2---------------------------------------------------2---2------------------------7--|
E|--0---0-----------------------------------------------------0---0-----------------------------|

e|--2-3-2h3p2p0-0---2-3-2h3p2p0-0--2-3-2h3p2p0-5--3-2-3-2h3p2p0-0--2-3-2h3p2p0-0--2-3-2h3p2p0-0--|
B|-----------------------------------------------------------------------------------------------|
G|-----------------------------------------------------------------------------------------------|
D|--------------0-----------------------------------------------2--------------0-----------------|
A|------------------------------3--------------5----------------------------------------------3--|
E|-----------------------------------------------------------------------------------------------|

e|-2-3-2h3p2p0-5--5-7-8-3h7p3--7--10-8-7----------5--5-7-7-8-7-5----------3--3-5--5--8--7--10-8--7--|
B|-----------------------------8---------10-8-----7--------------8-7-7\8--5-------7-----8--------8--|
G|-----------------------------9--------------11--7-----------------------5-------7-----9--------9--|
D|--------------------------------------------------------------------------------------------------|
A|-------------5---------------7------------------5-----------------------3-------5-----7--------7--|
E|--------------------------------------------------------------------------------------------------|

e|--8--5--5--7--7--------------7--------------7--5---------------5--8--7--------------5--5--3-2-2-0--|
B|-----7--------8--8--10---7-------8--8----7----------9--10----7----------9--10----7-----------------|
G|-----7--------9---------7-------9-------7----------8--------7-----------8-------7------------------|
D|---------------------------------------------------------------------------------------------------|
A|-----5--------7--------5-------7-------5----------7--------5------------7------5----------5---3----|
E|---------------------------------------------------------------------------------------------------|

e|--3-5------8------------0------2-----3-----2-0-0-----2-----3-----2-0-0-----2-----3-----5------|
B|--------7------8-------------0-----0-----0---------0-----0-----0---------0-----0-----0-----0--|
G|-------7------9------------0-----0-----0---------0-----0-----0---------0-----0-----0-----0----|
D|------------------------2------2-----2-----2-2-0-----0-----0-----0-0--------------------------|
A|------5------7-------------------------------------------------------3-----3-----3-----3------|
E|------------------0-0-0-----------------------------------------------------------------------|

e|--7-----5-----3-----2-----0-----2-----3-----2-0-5-----3-------------2h3p2-0-----2-----3-----5------|
B|----0-----0-----0-----0-------0-----0-----0-------0-----0-------0-------------0-----0-----0-----0--|
G|------0-----0-----0-----0---0-----0-----0-----------0-----0---0---0---------0-----0-----0-----0----|
D|--------------------------2-----2-----2-----2-2-0-----0-----0--------------------------------------|
A|--5-----5-----5-----5-----------------------------------------------------3-----3-----3------------|
E|---------------------------------------------------------------------------------------------------|

e|--7-----5-----7/8-----7-----0-----2-----3-----2-0-5-----2-----3-----2-0-5-----2-----3-----2-0--|
B|----0-----0-------0-----0-------0-----0-----0-------0-----0-----0-----------0-----0-----0------|
G|------0-----0-------0-----0---0-----0-----0-----------0-----0-----0-------0-----0-----0--------|
D|----------------------------2-----2-----2-----2-2-0-----0-----0-----0-0------------------------|
A|--5-----5-----5-------5-------------------------------------------------3------3----3-----3-3--|
E|-----------------------------------------------------------------------------------------------|

e|--7-----5-3-3-----2-3-0-----2-----3-----2-0-0-----2-----3-----3/5-0-0-----2-----3-----2-0--|
B|----0---------0-----------0-----0-----0---------0-----0-----0-----------0-----0-----0------|
G|------0---------0-------0-----0-----0---------0-----0-----0-----------0-----0-----0--------|
D|----------------------2-----2-----2-----2-2-0-----0-----0-----0---0------------------------|
A|--5---------5-------------------------------------------------------3-----3-----3-----3-3--|
E|-------------------------------------------------------------------------------------------|

e|--7-----5-3-3-----2-3-5-----5-3-2-----2-3-5-----5-3-7-----5-7-8---7----10---7----8---7----10---7--|
B|----0---------0---------0---------0---------0---------0---------0---------0--------0---------0----|
G|------0---------0---------0---------0---------0---------0-----------------------------------------|
D|--------------------------------------------------------------------------------------------------|
A|--5---------5---------3---------2---------3---------5---------7---7-----7---7----5---5-----5---5--|
E|--------------------------------------------------------------------------------------------------|

e|--5-5-5-5---3---3-3-3-5---3---3-3-3-3---2---2-2-3--2---0---2---3---2-0-0---2---3---2-0-0---2---3--|
B|----------0-------------0-------------0-----------------------------------------------------------|
G|--------------------------------------------------------------------------------------------------|
D|-------------------------------------------------------2---2---2---2-2-0---0---0---0-0------------|
A|--------3---3---------3---3---------2---2----------------------------------------------3---3---3--|
E|--------------------------------------------------------------------------------------------------|

e|--2-0-0---2---3---2----------12-121212-12-121212-----14-141414-14-141414-----15-151515-15-151515--|
B|---------------------------0-----------------------0-----------------------0----------------------|
G|-------------------------0------------------------0-----------------------0-----------------------|
D|--------------------------------------------------------------------------------------------------|
A|--3-3-2---2---2---2-------------------------------------------------------------------------------|
E|-----------------------0-------------------------0-----------------------0------------------------|

e|------17-171717-17-171717-----12-121212-12-121212-----14-141414-14-141414----15-151515-15-151515--|
B|----0-----------------------0-----------------------0----------------------0----------------------|
G|---0-----------------------0-----------------------0----------------------------------------------|
D|--------------------------------------------------------------------------------------------------|
A|--------------------------------------------------------------------------------------------------|
E|--0-----------------------0-----------------------0-----------------------0-----------------------|

e|----17-171717-17-171717-----19-191919-19-191919----19-191919-19-191919-----19-191919-19-191919--|
B|------------------------------------------------------------------------------------------------|
G|------------------------------------------------------------------------------------------------|
D|------------------------------------------------------------------------------------------------|
A|------------------------------------------------------------------------------------------------|
E|--0---------------------------------------------------------------------------------------------|

e|--------*12---*19---12--14-15-14--12-14-15-14---------------------12-----------12--|
B|------0---------------------------------------------0---------12-----12----12------|
G|----0--------------------------------------------0---------12------------12--------|
D|-----------------------------------------------------------------------------------|
A|-----------------------------------------------------------------------------------|
E|--0-------------------------------------------0-----0------------------------------|

Any questions just ask.

Good luck and enjoy, peace.

************************************

| /   slide up
| \   slide down
| h   hammer-on
| p   pull-off
| ~   vibrato
| *   harmonic
| x   Mute note
| b   Bend
| pb  Pre-bend
| br  Bend release
| pbr Pre-bend release
| brb Bend release bend

************************************
Добавлено: 17.04.2016
Другие материалы по этой песне:
  • Аккорды и текст

Страница создана 17.04.2016
http://primanota.ru/christopher-mclaren/lost-part-i-chords.htm
Привет, Гость.
Предлагаем пройти революционный курс по гитаре.
Подарок от PrimaNota.Ru, забирай!