PrimaNota.ru - самый крупный в мире бесплатный архив песенных текстов, аккордов, табулатур и нот


Christopher Mclaren - By My Side - таба, видео

Регистрация Запомнить меня
Войти через:  Facebook Google Twitter Vk Yandex Mail.ru

Christopher Mclaren - By My Side - таба, видео

Печатать
Просмотров: 78
-------------------------------------------------------------------------------
                          By My Side - Christopher McLaren
-------------------------------------------------------------------------------
Tabbed by: Christopher McLaren
E-mail: chris_mclaren948@hotmail.co.uk

YouTube: www.youtube.com/ChristopherMcLarenExperience
Soundcloud: soundcloud.com/christopher-mclaren948
Twitter: twitter.com/McLaren_Music

Tuning: Standard E A D G B E 

e|----10--------10------------10--------10-------------10---------10------------10-----|
B|-------10--------10----10------10--------10----10-------10---------10----10------10--|
G|--------------------10----------------------10------------------------10-------------|
D|--0---------0-------------0---------0--------------0----------0-------------0--------|
A|-------------------------------------------------------------------------------------|
E|-------------------------------------------------------------------------------------|

e|----10------------10--------10-------10----------10----10--------10-------10----------10--|
B|-------10----10------10--------10-------10----10----------10--------10-------10----10-----|
G|----------10------------10--------9--------7-----------------10--------9--------7---------|
D|--0-------------0------------------------------------0------------------------------------|
A|------------------------------------------------------------------------------------------|
E|------------------------------------------------------------------------------------------|

e|----10--------10------10----------10---10----10-----10----10----10-----------10-------------10--|
B|-------10--------10------10----10---------10---10------10---10-----10-----10--------10---10-----|
G|----------10--------9-------7--------------------10-----------9-------7----------------7--------|
D|--0----------------------------------0----------------------------------0-----0-----------------|
A|------------------------------------------------------------------------------------------------|
E|------------------------------------------------------------------------------------------------|

e|---------1--------------1--------------1--------------3----------1--------------0------------|
B|-------3---3---3------3---3---3------3---3---3------3---3------3---3---3------3---3---3------|
G|-----2-------2------2-------2------2-------2------2----------2-------2------2-------2----x2--|
D|--0--------------0--------------0--------------0-----------0-------------2-------------------|
A|---------------------------------------------------------------------------------------------|
E|---------------------------------------------------------------------------------------------|

e|--------5----------3----------1-----------0---------------------0-----------|
B|------3---3------3---3------3---3-----3-------3-------------3-------3-------|
G|----2----------2----------2---------2---2---2---2---------2---2---2---2-----|
D|--0----------0----------0---------0----------------x2---2----------------x2-|
A|----------------------------------------------------------------------------|
E|----------------------------------------------------------------------------|

e|--------------------------0--------------------------------------0-1-0-000-----3-0------|
B|------3-------3-----3-------6---5---6---5---3---5---3-----3----3---------------------3--|
G|----2---2---2-----2-----2-----7---5---7---5---3---5---3-2----2-------------2-------2----|
D|--2-------3-----2-----0---0-------------------------------0------------------0----------|
A|----------------------------------------------------------------------------------------|
E|----------------------------------------------------------------------------------------|

e|--------0-1-0-0------3-0------3-------------5-3-1h3p1-0h1p0--------5h6-5------------3-5-5/6-5-3h5-3-------|
B|--3---3--------------------3----5-------5--------------------5-6---------6-5h6--5-------------------5-5/6-|
G|----2------------2-------2------------5---5---------------------------------------------------------------|
D|-------------------0--------------------------------------------------------------------------------------|
A|--1---------------------------3----3-------------------------3-5----------------3-------------------------|
E|----------------------------------------------------------------------------------------------------------|

e|------5-6-8--6-5h6-5------------3-5-5/6-5-3h5-3-------------------5-3-------------------------|
B|--6------------------6-5h6--5-------------------5-----5-------5-------6-5h6p5--3-1h3-5-3h5-6--|
G|----------------------------------------------------5-------5---5-----------------------------|
D|----------------------------------------------------------------------------------------------|
A|--5-------------------------3---------------------3-------3--------------------1-----3-----5--|
E|----------------------------------------------------------------------------------------------|

e|--6-5h6p5-5-6-----5---6-5-3--------3---3-5-5/6-5-3h5-3-------5---5-6-8--6-5h6-5----5----------5-3--1-0--|
B|----------------6-----------5----5---------------------5---6--------------------6----6------------------|
G|--------------------------------------------------------------------------------------------------------|
D|--------------------------------------------------------------------------------------------------------|
A|----------5---5----------------3-------------------------5-----------------------------5--3-----3--3----|
E|--------------------------------------------------------------------------------------------------------|

e|----111---111---111---111-333-111---111---111---111---111--333-555---111---111---111---111-333-111--|
B|----------------------------------------------------------------------------------------------------|
G|----------------------------------------------------------------------------------------------------|
D|--3-----3-----3-----3-------------0-----0-----0-----0-----------------------------------------------|
A|-------------------------------------------------------------------3-----3-----3-----3--------------|
E|----------------------------------------------------------------------------------------------------|

e|----000---000---000---000-111-000---111---111---111---111-333-111---111---111---111---111-333-555--|
B|---------------------------------------------------------------------------------------------------|
G|---------------------------------------------------------------------------------------------------|
D|----------------------------------3-----3-----3-----3-------------0-----0-----0-----0--------------|
A|--3-----3-----3-----3------------------------------------------------------------------------------|
E|---------------------------------------------------------------------------------------------------|

e|----555---5---666-555---5-----000---000---000---000-111-000---000---111---000---111---111---333--|
B|-------------------------------------------------------------------------------------------------|
G|-------------------------------------------------------------------------------------------------|
D|--0-----0---0---------0--------------------------------------------------------------------------|
A|----------------------------3-----3-----3-----3-------------1-----1-----3-----3-----1-----1------|
E|-------------------------------------------------------------------------------------------------|

e|----555---666---666---888---666---555---666---5-5---6-6---5-5----5-6-8-8/10-8h10p8----8--------|
B|-----------------------------------------------------------------------------------11---11-10--|
G|-----------------------------------------------------------------------------------------------|
D|-----------------------------------------------------------------------------------------------|
A|--3-----3-----5-----5-----5-----5-----5-----5-----5-----5--------------------------------------|
E|-----------------------------------------------------------------------------------------------|

e|------------------10-8-------------------10-8------------------------------------10-8-----------------|
B|--10h11p10-10----------11-10h11p10-10---------11-10h11p10-10----11-10---11-10---------11-10-10/11-10--|
G|------------------------------------------------------------------------------------------------------|
D|------------------------------------------------------------------------------------------------------|
A|---------------10----------------------8---------------------10-------8-------7-----------------------|
E|------------------------------------------------------------------------------------------------------|

e|-----10-8------10-8------10-8-----------------------101010----888---------------------|
B|----------11--------11--------11-10--10/11-10------------------------11-11----10-10---|
G|--------------------------------------------------------------------------------------|
D|--------------------------------------------------------------------------------------|
A|--10---------8---------7-----------------------8-10--------10-----10-------10---------|
E|--------------------------------------------------------------------------------------|

e|-------101010---888------------------------101010----888--------------------------101010---888----------|
B|----------------------11-11---10-10-------------------------11-11----10-10-----------------------11-11--|
G|--------------------------------------------------------------------------------------------------------|
D|--------------------------------------------------------------------------------------------------------|
A|--10-8--------8-----8-------8---------8-10--------10-----10-------10---------10-8--------8-----8--------|
E|--------------------------------------------------------------------------------------------------------|

e|---------------------------------10-8------------------------------10-8---------------------------------|
B|----10-10-------11-10---11-10---------11-10--10/11-10-8-10-11-10-8------11-10--10-11--13-11--10--11-10--|
G|--------------------------------------------------------------------------------------------------------|
D|--------------------------------------------------------------------------------------------------------|
A|--8--------8-10-------8-------7------------------------------------------------8--10-----10--8------8---|
E|--------------------------------------------------------------------------------------------------------|

e|--------10-8----------------------------------8p6-6/5-5---5p3---------5p3---------5p3---------8p6-6/5-5--|
B|-------------11-10-8---------6--5---8--6--5-------------------6\5-6-------6p5-5-------6\5-6--------------|
G|---------------------10-9--------------------------------------------------------------------------------|
D|---------------------------------------------------------------------------------------------------------|
A|--8\7-7----------------------5--3---7--5--3---5-------5---3-------3---5-------5---3-------3---5-------5--|
E|---------------------------------------------------------------------------------------------------------|

e|--5p3---------5p3---------5-5-5p3--------5--3p1---------5p3---------6p5----------------5-3------|
B|------6\5-6-------6p5-5-----------6\5-5---------3p1-3-------6\5-5-------6p5-6--------------6-5--|
G|------------------------------------------------------------------------------------------------|
D|------------------------------------------------------------------------------------------------|
A|--3-------3---5-------5-----3---------------1-------1---3-------3---5-------5----8\5-5----------|
E|------------------------------------------------------------------------------------------------|

e|--------5-3----------3-1-0---3-1-0---3-1p0---------0-1-0-000------3-0-----------------0-1-0-0---|
B|-----------6-5---------------------1--------3----3-----------------------3-----3----3-----------|
G|-----------------------------------------------2--------------2--------2-----2----2-------------|
D|--------------------------------------------0-------------------0-------------------------------|
A|--7\3-3--------5\1-1-------3------------------------------------------------1-------------------|
E|------------------------------------------------------------------------------------------------|

e|--0-----1-----------3--------3-------5-3----------------------------------------------------|
B|----3-----3---3----5--5----5---5---5-----6--5---3---3---5---5---6---6---6-----6---5h6-5\1---|
G|------2-----2-----5------5-------5----------------3---3---5---5---7---7-----7---7-----------|
D|--------------------------------------------------------------------------------------------|
A|-----------------3------------------------------1-------3-------5-------5-------------------|
E|--------------------------------------------------------------------------------------------|

e|-------------0-1-0--3-1-0h1-0-0--0----------------0-1-0-5--3h5p3-1-0h1p0--0------------------------|
B|--3----3---3-----------------------3--------3---3---------------------------3---3---3----3---3-----|
G|-----2---2---------------------------2----2---2-------------------------------2---2---2----2---2---|
D|--0------------------------------------0-----------------------------------------------------------|
A|--------------------------------------------------------------------------------1--------3---------|
E|---------------------------------------------------------------------------------------------------|

e|-------------0-1-0--3-1-0h1-0-0--0----------------0-1-0-5--3h5p3-5-8-6h8p6-6-5h6p5---5h6-5----0------|
B|--3----3---3-----------------------3--------3---3-----------------------------------------------3----|
G|-----2---2---------------------------2----2---2---------------------------------------------------2--|
D|--0------------------------------------0-------------------------------------------------------------|
A|-----------------------------------------------------------------------------------------------------|
E|-----------------------------------------------------------------------------------------------------|

e|-------------------------------------------------------------------------------------|
B|--3---3----3---3-----3---------3-----------3-----------3---------3-----------3-------|
G|----2---2----2---2--------2-----------2---------2-----------2-----------2---------2--|
D|-------------------------------------------------------------------------------------|
A|--1--------3-------3----1----0------3----1----0------3----1----0------3----1----0----|
E|-------------------------------------------------------------------------------------|

e|----------------------------------------------------------|
B|--3---3-----5---5---------3-----3---------3-----3---3--3--|
G|----2---2-----5---5-----2-----2-----2---2-----2----2--2---|
D|-----------------------------------------------------0----|
A|--1---------3---------3-----1-----1---3-----1-----1-------|
E|----------------------------------------------------------|

e|---------1--------------1--------------1--------------3----------1--------------0------------|
B|-------3---3---3------3---3---3------3---3---3------3---3------3---3---3------3---3---3------|
G|-----2-------2------2-------2------2-------2------2----------2-------2------2-------2----x2--|
D|--0--------------0--------------0--------------0-----------0-------------2-------------------|
A|---------------------------------------------------------------------------------------------|
E|---------------------------------------------------------------------------------------------|

e|--------5----------3----------1-----------0---------------------0-----------|
B|------3---3------3---3------3---3-----3-------3-------------3-------3-------|
G|----2----------2----------2---------2---2---2---2---------2---2---2---2-----|
D|--0----------0----------0---------0----------------x2---2----------------x2-|
A|----------------------------------------------------------------------------|
E|----------------------------------------------------------------------------|

e|---------------------------|
B|------3-------3-----3------|
G|----2---2---2-----2-----2--|
D|--2-------3-----2-----0----|
A|---------------------------|
E|---------------------------|

e|--0-------------------------------0-------------------------------0---------------------------------|
B|----6---5---6---5---3---5---3-------6---5---6---5---3---5---3-------6---5---6---5---3---5---3-------|
G|------7---5---7---5---3---5---3-2-----7---5---7---5---3---5---3-2-----7---5---7---5---3---5---3-2---|
D|--0-------------------------------0-------------------------------0---------------------------------|
A|----------------------------------------------------------------------------------------------------|
E|----------------------------------------------------------------------------------------------------|

e|--0----------------------------------10-------10----10-----10----10------10------------10------10--|
B|----6-----5-----3-----3-----------10-------------10---10------10---10-------10------10---10--------|
G|------7-5---5-3---3-2---2-----7-------------------------10------------9---------7----------7-------|
D|--0-----------------------------0-----0-----0-------------------------------------0---------0------|
A|---------------------------------------------------------------------------------------------------|
E|---------------------------------------------------------------------------------------------------|

Any questions just ask.

Good luck and enjoy, peace.

***********************************

| /   slide up
| \   slide down
| h   hammer-on
| p   pull-off
| ~   vibrato
| +   harmonic
| x   Mute note
| b   Bend
| pb  Pre-bend
| br  Bend release
| pbr Pre-bend release
| brb Bend release bend

************************************
Добавлено: 17.04.2016
Другие материалы по этой песне:
  • Аккорды и текст

Страница создана 17.04.2016
http://primanota.ru/christopher-mclaren/by-my-side-chords.htm
Привет, Гость.
Предлагаем пройти революционный курс по гитаре.
Подарок от PrimaNota.Ru, забирай!