PrimaNota.ru - самый крупный в мире бесплатный архив песенных текстов, аккордов, табулатур и нот


Christopher Mclaren - Blind - таба, видео

Регистрация Запомнить меня
Войти через:  Facebook Google Twitter Vk Yandex Mail.ru

Christopher Mclaren - Blind - таба, видео

Печатать
Просмотров: 87
-------------------------------------------------------------------------------
                             Blind - Christopher McLaren
-------------------------------------------------------------------------------
Tabbed by: Christopher McLaren
E-mail: chris_mclaren948@hotmail.co.uk

YouTube: www.youtube.com/ChristopherMcLarenExperience
Soundcloud: soundcloud.com/christopher-mclaren948
Twitter: twitter.com/McLaren_Music

Tuning: Standard E A D G B E 

e|-----12-10-9----12-10-9h10p9\7---10-9-7\5-------------12-10-9h10p9----12-10-9h10p9/7---10-9-7/5----|
B|--10---------10----------------9----------7----9--10---------------10----------------9----------7--|
G|---------------------------------------------------------------------------------------------------|
D|---------------------------------------------------------------------------------------------------|
A|--9----------9-----------------7----------5--7----9-----------------9----------------7----------5--|
E|---------------------------------------------------------------------------------------------------|

e|--7-5-4p0----4----4---5--5----5---7--7----7-------9-9h10p9-7------7-7h9p7\5--5h7p5\4--------------------|
B|----------5----5---5-------7---7-------9---9--10-------------10-9---------------------7----7-----9--10--|
G|-----------------------------------------------------------------------------------------------9----11--|
D|--------------------------------------------------------------------------------------------------------|
A|----------4--4----4---5--5----5---7--7----7---9-----------------7---------------------5--5---7-----9----|
E|--------------------------------------------------------------------------------------------------------|

e|-----------------------------/7-5-4----------------------5--4---------5--7-------------|
B|-------10----10-9-7---7---7---------5-5/7---7--7--5--7---7--5--5--7---7--9----5-----7--|
G|----11----11--------6-----6---------------6----6--6--7---------6--7-----------6---6----|
D|--------------------------------------------------------------------------------4------|
A|--9---------------------9----------------------9--4--5---5--4--4--5---5--7----4--------|
E|---------------------------------------------------------------------------------------|

e|-------------------------9-10-------7-9-9/10-9--7-5-4-4-5----4-5----4-5--7-9-10-7h9--------------------|
B|--/10-9-------7---9---10------10-9---------------------------------------------------10-9-7---9---7-9--|
G|--------9-6---------------------------------------------------------------------------------9---9------|
D|-------------------------------------------------------------------------------------------------------|
A|------------9---7---9-9-------9--7-----------9--9-7-5-5---4--4---5--5----9------9-----------------9-7--|
E|-------------------------------------------------------------------------------------------------------|


e|-----12-10-9----12-10-9h10p9\7---10-9-7\5-------------12-10-9h10p9----12-10-9h10p9/7---10-9-7/5----|
B|--10---------10----------------9----------7----9--10---------------10----------------9----------7--|
G|---------------------------------------------------------------------------------------------------|
D|---------------------------------------------------------------------------------------------------|
A|--9----------9-----------------7----------5--7----9-----------------9----------------7----------5--|
E|---------------------------------------------------------------------------------------------------|

e|--7-5-4p0----4----4---5--5----5---7--7----7-------9-9h10p9----9-12-10-9----10-9-7------/9-7-5---7-5-4-----|
B|----------5----5---5-------7---7-------9---9--10-----------10-----------10--------9-10--------7-------5-7-|
G|----------------------------------------------------------------------------------------------------------|
D|----------------------------------------------------------------------------------------------------------|
A|----------4--4----4---5--5----5---7--7----7---9-----------------------------------7-9-----------------4-5-|
E|----------------------------------------------------------------------------------------------------------|

e|--/5-4-2---4-2-0-------7-5-4-4-2--2-4-5-4-2-0----0---7-5-4-----5-4-2-----7-5-4-0---5-4-2-------0--|
B|---------3-------4-5---------------------------4-5---------5---------4---------5---------4-2-4-5--|
G|--------------------------------------------------------------------------------------------------|
D|--------------------------------------------------------------------------------------------------|
A|-----------------2-4---4-----2--------------0--2-4---4-----4---2-----2---4-----4---2-----2---2-4--|
E|--------------------------------------------------------------------------------------------------|

e|--4--------------------9--------------------------------9-----------------2--|
B|--5-------7-----9------10-------10----10-9-7----7---9---10--------------------|
G|--------7-----9-----11-------11----11--------6----------11--------------------|
D|------------------------------------------------------------------------------|
A|--4---5-----7-----9--------9-------------------9--7---9-9---------------------|
E|------------------------------------------------------------/7-5-4-0--0-2----|

Any questions just ask.

Good luck and enjoy, peace.


************************************

| /   slide up
| \   slide down
| h   hammer-on
| p   pull-off
| ~   vibrato
| +   harmonic
| x   Mute note
| b   Bend
| pb  Pre-bend
| br  Bend release
| pbr Pre-bend release
| brb Bend release bend

************************************
Добавлено: 17.04.2016
Другие материалы по этой песне:
  • Аккорды и текст

Страница создана 17.04.2016
http://primanota.ru/christopher-mclaren/blind-chords.htm
Привет, Гость.
Предлагаем пройти революционный курс по гитаре.
Подарок от PrimaNota.Ru, забирай!