PrimaNota.ru - самый крупный в мире бесплатный архив песенных текстов, аккордов, табулатур и нот


Christopher Cross - Ride Like The Wind Live - таба, видео

Регистрация Запомнить меня
Войти через:  Facebook Google Twitter Vk Yandex Mail.ru

Christopher Cross - Ride Like The Wind Live - таба, видео

Печатать
Просмотров: 150
Уроки эстрадного вокала в Санкт-Петербурге
Tabbed from the YouTube video "Christopher Cross: Ride Like the Wind (Live)"
(no final solo)

Intro:
e|---------------------------------------------------------------|
B|---------------------------------------------------------------|
G|---------------------------------------------------------------|
D|------5-55555--3-33333--5-55555--3-33333-----------3-33333-----|
A|----1-3-33333--1-11111--3-33333--1-11111--7-77777--1-11111-----|
E|--3---------------------------------------5-55555--------------|

e|------------------|
B|------------------|
G|------------------|
D|-5-55555--3-3333--|
A|-3-33333--1-1111--|
E|------------------|

e|-------------------------------------------------------------------|
B|------------4-3---4-3----4-3---4-3----4-3---4-3------4-3---4-3-----|
G|------------3-3---3-3----3-3---3-3----3-3---3-3------3-3---3-3-----|
D|------------5-3---5-3----5-3---5-3----5-3---5-3------5-3---5-3-----|
A|----1--3----------------------------3------------------------------|
E|--3-------------------6---------------------------6----------------|

e|---------------------------------------------------------------|
B|--------4-3---4-3----4-3---4-3----4-3---4-3------4-3---4-3-----|
G|--------3-3---3-3----3-3---3-3----3-3---3-3------3-3---3-3-----|
D|--------5-3---5-3----5-3---5-3----5-3---5-3------5-3---5-3-----|
A|--------------------------------3------------------------------|
E|----4--------------6--------------------------6----------------|


Verse Pattern:
e|-------------------------------------------------------------------|
B|------------4-3---4-3----4-3---4-3----4-3---4-3------4-3---4-3-----|
G|------------3-3---3-3----3-3---3-3----3-3---3-3------3-3---3-3-----|
D|------------5-3---5-3----5-3---5-3----5-3---5-3------5-3---5-3-----|
A|-------3----------------------------3------------------------------|
E|----------------------6---------------------------6----------------|

e|---------------------------------------------------------------|
B|--------4-3---4-3----4-3---4-3----4-3---4-3------4-3---4-3-----|
G|--------3-3---3-3----3-3---3-3----3-3---3-3------3-3---3-3-----|
D|--------5-3---5-3----5-3---5-3----5-3---5-3------5-3---5-3-----|
A|--------------------------------3------------------------------|
E|----4--------------6--------------------------6----------------|


e|---3-----3-----3----3--------|
B|---4-----3-----4----3--------|
G|---5-----3-----5----3--------|
D|---x-----3-----x----3--------|
A|---x-----x-----x----x--------|
E|---4-----3-----4----3--------|

e|-------------------------------------------------------------------|
B|------------4-3---4-3----4-3---4-3----4-3---4-3------4-3---4-3-----|
G|------------3-3---3-3----3-3---3-3----3-3---3-3------3-3---3-3-----|
D|------------5-3---5-3----5-3---5-3----5-3---5-3------5-3---5-3-----|
A|----1--3----------------------------3------------------------------|
E|--3-------------------6---------------------------6----------------|


Chorus:

e|---------------10----------------10--10-----|
B|--8888--88-10--11------8888--88--11--10-----|
G|--8888--88-10--12------8888--88--12--10-----|
D|--8888--88-10--12------8888--88--12--10-----|
A|--xxxx--xx-x---10------xxxx--xx--10--8------|
E|--8888--88-10----------8888--88-------------|

e|---------------10----10--10--8--5---------|
B|--8888--88-10--11----11--10--8--6---------|
G|--8888--88-10--12----12--10--8--5---------|(2x)
D|--8888--88-10--12----12--10--8--7---------|
A|--xxxx--xx-x---10----10--8------5---------|
E|--8888--88-10-----------------------------|





Добавлено: 03.06.2012
Другие материалы по этой песне:
  • Аккорды и текст

Страница создана 03.06.2012
http://primanota.ru/christopher-cross/ride-like-the-wind-live-chords.htm
Привет, Гость.
Предлагаем пройти революционный курс по гитаре.
Подарок от PrimaNota.Ru, забирай!