PrimaNota.ru - самый крупный в мире бесплатный архив песенных текстов, аккордов, табулатур и нот


Christophe Beck - Close Your Eyes - таба, видео

Регистрация Запомнить меня
Войти через:  Facebook Google Twitter Vk Yandex Mail.ru

Christophe Beck - Close Your Eyes - таба, видео

Печатать
Просмотров: 112
                             

                                         
E||--4-----5----2-----2--5-|--4----------------0-----|
B||--------2----3----------|--5-----0----------------|
G||-----6----------2-------|--------1----6-----2-----|
D||--4----------0----------|-------------7--2-----2--|
A||------------------------|-----2-------0-----------|
E||------------------------|--0----------------------|


                                         
--5-----0-----------------|---5------0--2-----------|
--7--------7--(7)---------|---7---------------------|
--------------------------|-------2--------2--------|
-----7-----------------7--|---0---------------------|
--5-----------------------|----------------0--------|
--------------------------|-------------------------|


                                             
--5--------------10--------5--|--7-----12------9---------12-|
--2------10------10-----7-----|--9------9------------10-----|
---------11------11-----------|---------9--9------9------13-|
--4--11------11---0--7-----7--|-----9-----------------------|
------------------------------|--7------------12------------|
------------------------------|-----------------------------|


                                                            
--12-----------10----------|--10--------5-----------|
--10-----5--7--7-----------|--10-----5-----7--------|
--11--------------------7--|--11--------------------|
---0--7--------------------|---0--7-----------------|
---------------------------|------------------------|
---------------------------|------------------------|



                           

|------------------------|---9--------10----------|
|------------------------|------------------------|
|--------11----9---------|------------------------|
|--11---------------9----|--11--------12----------|
|---------9----7---------|------------------------|
|---9---------------7----|------------------------|



                                                          
--2---------------------|--2--2--2---------------|--2----------4----------|
------------------------|-------------0--0-------|--0-----3----------2----|
--2-----7--9--11--------|--------2----------1----|-----2----------2-------|
--0--7------------------|----------------2-------|--0---------------------|
------------------------|-----4-------2----------|-------------4----------|
------------------------|--2---------------------|------------------------|



                                                  
--2----------2--------|
-------------3--------|
--2-----4----4--------|
-----4-------4--------|
--2----------2--------|
----------------------|


Easy End :


                  C#m  D        E           A            D
---7--10----9---|--4---2----9---7---|-----------4---5----2-|--------0--2--5-|
------------8---|--5---3--------9---|--3----2------------3-|------3-------5-|
------------11--|--6---2--------9---|-------2------------2-|----2-----------|
------------11--|--6---0--------9---|-------2------------0-|--0-------------|
------------9---|--4------------7---|-------0--------------|--------------0-|
----------------|-------------------|----------------------|----------------|


Hard End :

                        
                                                     
-------------------------|12-----------12------16----|------12--14--(14)--|
---------10--------------|----0--15----14------------|------------------15|
--------------11-------11|-------13------------14----|---14---------------|
----11-------------------|-----------------14------14|12------------------|
9------------------12----|-------------12------------|--------------------|
--------------10---------|12-------------------------|--------------------|



                                                                  
----------12--14--------------|--21----------------|--14------------|
-------------------14---------|--------------------|----------------|
------14----------------------|--------------------|--11------------|
--12--------------------------|--------------------|----------------|
-------------------12---------|--------------------|---9------------|
------------------------------|--------------------|----------------|




                                                         
--------------------|--------------------|-----------5--2---------|
--------------------|--------------------|--------5---------------|
--9-----------------|--------------------|-----2------------------|
--9--------7--------|--7----4------------|--0---------------------|
--7--------7--------|--7----4------------|------------------------|
-----------5--------|--5----2------------|------------------------|



                                                                 
--2----------|---0--------------|-----------2--------------2-----|
-------------|------------------|----3--------------3------------|
-------------|-------------2----|--------2-----2--------2-----2--|
--4----------|---2--------------|----0--------------0------------|
-------------|-------------0----|--------------------------------|
--2----------|---0--------------|--------------------------------|



                                                 
-----------2------------2------|--2--------5-/-2---------2------|
----2------------0-------------|-------2----------3-------------|
--------2-----2-----2-------2--|----------------------2------2--|
----0------------0-------------|---4--------------0-------------|
-------------------------------|--------------------------------|
-------------------------------|-----------5-/-2----------------|



                                                      
---------------------------------|-10----------------------------|
----------3--------5-------------|-10----------------------------|
----------1--------2-------2-----|-11-------------9----7--9----9-|
-2---------------------2-------2-|-12----------7-----------------|
-----2--------2----0-------------|-12--7-9-7---------------------|
-0-------------------------------|-------------------------------|


                                                                
-----------------------------|--2----------------|--14-----------9----||
-------------10-----9--------|--2----------------|--------------------||
--7-----9----------11--------|--2----------------|--------------------||
-----7-----------------------|--4----------------|--------------------||
-----------------------------|--4----------------|--------------------||
-----------------------------|--2----------------|--------------------||




Please rate.

Добавлено: 21.07.2012
Другие материалы по этой песне:

Страница создана 04.03.2012
http://primanota.ru/christophe-beck/close-your-eyes-chords.htm
Привет, Гость.
Предлагаем пройти революционный курс по гитаре.
Подарок от PrimaNota.Ru, забирай!