PrimaNota.ru - самый крупный в мире бесплатный архив песенных текстов, аккордов, табулатур и нот


Christoph Und Lollo - Hautamaeki Duell - таба, видео

Регистрация Запомнить меня
Войти через:  Facebook Google Twitter Vk Yandex Mail.ru

Christoph Und Lollo - Hautamaeki Duell - таба, видео

Печатать
Просмотров: 123
-------------------------------------------------------------------------------
              Christoph und Lollo    -  Hautamäki Duell
-------------------------------------------------------------------------------
Tabbed by: Martin Messner
Email: bigbonsai@hotmail.de

Tuning: 

//////////////////////////////////////////////
//                                          //
//  RATING THIS TAB TAKES ABOUT 5 SECONDS   //
//  AND HELPS ME TO IMPROVE MY WORK         //
//                                          //
//////////////////////////////////////////////

Chords
basically: a F D G

more detailed:
e|-0--0-----1-0--------3---3---|
B|-1--0-----1----1--3--3---0---|
G|-2--2-----2----0--0--0---0---|
D|-2--2-----3----2--2--0---0---|
A|-0--0-----3----3--3--2---2---|
E|----------1----------3---3---|
   a  asus2 F e* C1 C2 G1  G2



How to strum (Verses):
e|----------------------------1---1-1-1-1---1-1-1-1-0-0-|
B|--1---1-1-1-1---1-1-1-1-0-0-1---1-1-1-1---1-1-1-1-----|
G|--2---2-2-2-2---2-2-2-2-2-2-2---2-2-2-2---2-2-2-2-----|
D|--2---2-2-2-2---2-2-2-2-2-2-3---3-3-3-3---3-3-3-3-----|
A|--0---0-0-0-0---0-0-0-0-0-0-3---3-3-3-3---3-3-3-3-----|
E|----------------------------1---1-1-1-1---1-1-1-1-----|


e|--0---------0---0-----------3---3-3-3-3---3-3-3-3-3-3-|
B|--1---1-1-1-3---3-3-3-3-1-1-3---3-3-3-3---3-3-3-3-0-0-|
G|--0---0-0-0-0---0-0-0-0-0-0-0---0-0-0-0---0-0-0-0-0-0-|
D|--2---2-2-2-2---2-2-2-2-2-2-0---0-0-0-0---0-0-0-0-0-0-|
A|--3---3-3-3-3---3-3-3-3-3-3-2---2-2-2-2---2-2-2-2-2-2-|
E|----------------------------3---3-3-3-3---3-3-3-3-3-3-|


Als die Kirchturmglocke zwölf Uhr Mittags schlägt 
Da macht Matti sich bereit 
Er hat schon den lila Anzug angelegt 
Eine Stunde ist noch Zeit 
Und auch Jussi hat die Schuhe längst schon an 
Sogar den Helm hat er schon auf 
Die beiden Brüder fahren mit der Zahnradbahn 
Zur Schanze auf den Berg hinauf 

...

How to strum (PreChorus):

e|-------------0-0-0-0----|
B|--0----------0-0-0-0----|
G|--1----------1-1-1-1----|
D|--2--------2-2-2-2-2----|
A|--2--------2-------2----|
E|--0--------0-------0----|

Es gibt kein Publikum und keinen Pokal hier beim 

...

How to strum (Chorus)

e|---------------------------------|
B|-----1-------3-------1-------0---|
G|-----2-------0-------2-------1---|
D|---2---2---0---0---3---3---2---2-|
A|-0-------------------------------|
E|---------3-------1-------0-------|


Hautamaeki-Duell, da wird das Urteil gefällt 
Beim Hautamaeki-Duell bekommt der Sieger kein Geld 
Beim Hautamaeki-Duell entscheiden Coolness und Kraft 
Beim Hautamaeki-Duell wird endlich Klarheit geschafft 

...

Grauer Nebel hüllt die Trainingsschanze ein 
Jussi pfeift: "Here comes the sun" 
Die Hautamaekis sind hier oben ganz allein 
Und schweigen sich beharrlich an 
Um zu klären wer als erster springen muß 
Spielen sie Schere, Stein, Papier 
Matti, der gewinnt, spuckt auf die Spitze Jussis Schuhs 
Und Jussi schließt gleich sein Visier 
Der Kampf beginnt und RTL ist nicht dabei hier beim 

Hautamaeki-Duell, da wird das Urteil gefällt 
Beim Hautamaeki-Duell bekommt der Sieger kein Geld 
Beim Hautamaeki-Duell entscheiden Coolness und Kraft 
Beim Hautamaeki-Duell wird endlich Klarheit geschafft 

Drei Stunden später sind die beiden längst k.o. 
Doch die Entscheidung steht noch aus 
Die Hautamaekis zeigen Weltklasseniveau 
Doch heute gibt's keinen Applaus 
Es wird schon dunkel und der Wind wird bitterkalt 
Der K-Punkt ist kaum noch zu sehen 
Die Hautamaekis gehen zum pinkeln in den Wald 
Sie können beide kaum noch stehen 
Es wird nur einer von den zweien nach Hause gehen hier vom 

Hautamaeki-Duell, da wird das Urteil gefällt 
Beim Hautamaeki-Duell bekommt der Sieger kein Geld 
Beim Hautamaeki-Duell entscheiden Coolness und Kraft 
Beim Hautamaeki-Duell wird endlich Klarheit geschafft 

Beim Hautamaeki-Duell ist der Telemark Pflicht 
Beim Hautamaeki-Duell da heißt es: "Fürchtet euch nicht" 
Beim Hautamaeki-Duell da geht's um Leben und Tod 
Beim Hautamaeki-Duell färbt sich die Anlaufspur rot 

Hautamaeki Hautamaeki Hautamaeki
Добавлено: 14.04.2012
Другие материалы по этой песне:
  • Аккорды и текст

Страница создана 14.04.2012
http://primanota.ru/christoph-und-lollo/hautamaeki-duell-chords.htm
Привет, Гость.
Предлагаем пройти революционный курс по гитаре.
Подарок от PrimaNota.Ru, забирай!