PrimaNota.ru - самый крупный в мире бесплатный архив песенных текстов, аккордов, табулатур и нот


Christina Sturmer - Ist Mir Egal - бас-таба, видео

Регистрация Запомнить меня
Войти через:  Facebook Google Twitter Vk Yandex Mail.ru

Christina Sturmer - Ist Mir Egal - бас-таба, видео

Печатать
Просмотров: 32
Ist Mir Egal - Christina Stürmer
Intro / Main Riff : Man kann dies entweder auf der A oder A und D seite(n) 
spielen, persoenlich gefällt es mir so am besten
G--------------------------------------|
D--------------------------------------|
A-1-1-1-1-/8-8-8-8-6-6-6-4(4)-3-4-6----| X2
E--------------------------------------|

Verse
G--------------------------------------|
D--------------------------------------|
A-1-1-1-1-/8-8-8-8-6-6-6-4(4)-3-4-6----| X3
E--------------------------------------|

G------------------------------------|
D------------------------------------|
A------------------6-6-6-6-6-6-6-6---|
E-4-4-4-4-4-4-4-4--------------------|

G--------------------------------------|
D--------------------------------------|
A-1-1-1-1-/8-8-8-8-6-6-6-4(4)-3-4-6----| X3
E--------------------------------------|

G------------------------------------|
D------------------------------------|
A------------------6-6-6-6-6-6-6-6---|
E-4-4-4-4-4-4-4-4--------------------|

Chrous 1
G------------------------------------|
D-----------------1-1-1-1------------|
A---------4-4-4-4---------1-1-1-1----| X3
E-1-1-1-1----------------------------|

G------------------------------------|
D-----------------1-1-1-1------------|
A---------4-4-4-4---------1~---------|
E-1-1-1-1----------------------------|

Interlude
G--------------------------------------|
D--------------------------------------|
A-1-1-1-1-/8-8-8-8-6-6-6-4(4)-3-4-6----| X2
E--------------------------------------|

Verse

Chrous 2
G------------------------------------|
D-----------------1-1-1-1------------|
A---------4-4-4-4---------1-1-1-1----| X4
E-1-1-1-1----------------------------|

Guitar Interlude
G------------------------------------|
D-----------------1-1-1-1------------|
A---------4-4-4-4---------1-1-1-1----| X3
E-1-1-1-1----------------------------|

G------------------------------------|
D-----------------1~-----------------|
A---------4-4-4-4--------------------|
E-1-1-1-1----------------------------|

Bridge
G------------------------------------|
D------------------------------------|
A-6x6x6x6x6x6x6x6x-1x1x1x1x1x1x1x1x--|
E------------------------------------|

G--------------------------------------|
D--------------------------------------|
A-6x6x6x6x6x6x6x6x---------1x1x1x1x-1~-|
E------------------2x2x2x2x------------|

Guitar Solo

Chorus 3
G----------------------------------------|
D---------------------1-1-1-1------------|
A-------------4-4-4-4---------1-1-1-1----| X3
E-12\-1-1-1-1----------------------------|

G------------------------------------|
D-----------------1-1-1-1-1-1-1-1----|
A---------4-4-4-4--------------------|
E-1-1-1-1----------------------------|

G------------------------------------|
D-----------------1-1-1-1------------|
A---------4-4-4-4---------1-1-1-1----| X3
E-1-1-1-1----------------------------|

G------------------------------------|
D------------------------------------|
A---------4-4-4-4-6-6-6-6-6~--(/0)---|
E-1-1-1-1----------------------------|

x - Mute
/ - Slide up
~ - Held Note
() - Optional
By Bobert5   mit Hilfe von ApeX2411 von Youtube
Добавлено: 01.03.2016
Другие материалы по этой песне:
  • Аккорды и текст

Страница создана 01.03.2016
http://primanota.ru/christina-sturmer/ist-mir-egal-chords.htm
Привет, Гость.
Предлагаем пройти революционный курс по гитаре.
Подарок от PrimaNota.Ru, забирай!