PrimaNota.ru - самый крупный в мире бесплатный архив песенных текстов, аккордов, табулатур и нот


Christie - If Only - аккорды и текст, видео

Регистрация Запомнить меня
Войти через:  Facebook Google Twitter Vk Yandex Mail.ru

Christie - If Only - аккорды и текст, видео

Печатать
Просмотров: 443
If Only
Christie
                     Am
E---------------------------------
B---------------------------------
G---------------------------------
D-----2---0-----------------------
A------------3---2---0------------
E---------------------------------

1st verse
Am      E               Am    Dm
If only you were not so far away
G                             C    E
I would come to you, I surely would
Am      E               Am        Dm
If only I could find the words to say
G                                   C    E
I could speak my mind, and you would know
Chorus
F        E
If only, if only
Am          Dm
There was a way
G        E          Am
If only, I knew the reason
      F                G                  C  E
But I don't, so I just sing this song for you
                     Am
E---------------------------------
B---------------------------------
G---------------------------------
D-----2---0-----------------------
A------------3---2---0------------
E---------------------------------
solo
F        E
If only, if only
Am          Dm
There was a way
G        E          Am
If only, I knew the reason
      F                 G                 C  E
But I don't, so I just sing this song for you
                     Am
E---------------------------------
B---------------------------------
G---------------------------------
D-----2---0-----------------------
A------------3---2---0------------
E---------------------------------


2nd verse
Am      E            Am         Dm
If only I had silver wings, I'd fly
G                              C   E
If it could be so, I'd be with you
Am      E              Am        Dm
If only time was on my side, I'd try
G                               C  E
Nothing would keep me away from you

Chorus 
F        E
If only, if only
Am          Dm
There was a way
G        E          Am
If only, I knew the reason
      F                 G                 C  E
But I don't, so I just sing this song for you
                     Am
E---------------------------------
B---------------------------------
G---------------------------------
D-----2---0-----------------------
A------------3---2---0------------
E---------------------------------
Добавлено: 26.08.2015
Другие материалы по этой песне:
  • Аккорды и текст

Страница создана 26.08.2015
http://primanota.ru/christie/if-only-chords.htm
Привет, Гость.
Предлагаем пройти революционный курс по гитаре.
Подарок от PrimaNota.Ru, забирай!