PrimaNota.ru - самый крупный в мире бесплатный архив песенных текстов, аккордов, табулатур и нот


Christians And Lions - All My Dead Friends - таба, видео

Регистрация Запомнить меня
Войти через:  Facebook Google Twitter Vk Yandex Mail.ru

Christians And Lions - All My Dead Friends - таба, видео

Печатать
Просмотров: 95
All My Dead Friends
Christians and Lions
From the 2009 album Bird's Milk
http://christiansandlions.bandcamp.com/track/all-my-dead-friends

Intro/Verse
e|-|-----0------|------0-----|-----0------|------0-----|
B|-|3-------3---|--3--------3|~-------3---|--3--------\|
G|-|--4--------4|~--4----4---|--4--------4|~--4----4--\|
D|-|0--0--0--0--|0----0---0--|0--0--0--0--|0----0---0--|
A|-|------------|------------|------------|------------|
E|-|------------|------------|------------|------------|

e|-|------------|------------|3----3-----3|~----3------|
B|-|1~~--1-----1|~-33-33--1--|--3-----3---|--3-----3---|
G|-|--2-----2---|~-44-44--2--|------------|------------|
D|-|2--2--@--2--|~-----------|------------|------------|
A|-|------------|------------|------------|------------|
E|-|------------|------------|---3--3--3--|3--3--3--3--|

Chorus         Oh it's that way..."
e|-|1----1-----1|~----1------|-----0------|-----0------|
B|-|--3-----3---|--3-----3---|1-------1--1|~-------1---|
G|-|------------|------------|--0--------2|~-2---------|
D|-|------------|------------|2--2--2--2-2|~--2--2--2--|
A|-|------------|------------|------------|------------|
E|-|---3--3--3--|3--3--3--3--|------------|------------|

e|-|-----0------|------------|-----------0|2----2------|
B|-|3-------3--1|~----1------|1----1------|--1-----1---|
G|-|--4--------2|~-2-----2---|--2-----2---|2--2--2--2--|
D|-|4--4--4--4--|------------|2--2--2--2--|------------|
A|-|------------|---2--2--2--|------------|------------|
E|-|-----------0|~-----------|------------|------------|

e|-|3----3-----3|~----3-----3|~----3-----3|~----3------|
B|-|--3-----3---|--3-----3---|--3-----3---|--3-----3---|
G|-|------------|------------|------------|------------|
D|-|------------|------------|------------|------------|
A|-|------------|------------|------------|------------|
E|-|---3--3--3--|3--3--3--3--|3--3--3--3--|3--3--3--3--|

Verse

Last Chorus 
e|-|1----1-----1|~----1------|-----0------|-----0------|
B|-|--3-----3---|--3-----3---|1-------1--1|~-------1---|
G|-|------------|------------|--0--------2|~-2---------|
D|-|------------|------------|2--2--2--2-2|~--2--2--2--|
A|-|------------|------------|------------|------------|
E|-|---3--3--3--|3--3--3--3--|------------|------------|

e|-|-----0------|------------|------------|------------|-----3~~~~~~||
B|-|3-------3--1|~----1------|1----1-----1|--33-33--1--|----0~~~~~~~||
G|-|--4--------2|~-2-----2---|--2-----2---|--44-44--2--|---0~~~~~~~~||
D|-|4--4--4--4--|------------|2--2--2--2--|------------|--0~~~~~~~~~||
A|-|------------|---2--2--2--|------------|------------|-2~~~~~~~~~~||
E|-|-----------0|~-----------|------------|------------|3~~~~~~~~~~~||

Notes:
- The time signature is 12/8 Each "-" represents an 8th note, so each set of three "---" is a beat,
and it ends up feeling like 4/4 all triplets.
- The first time through the verse, Ben plays measure 3 differently than every other time through.
I didn't tab it since it seems like a mistake, but he basically reverses the rhythms of mm 3 and 4.
Добавлено: 30.09.2013
Другие материалы по этой песне:
  • Аккорды и текст

Страница создана 30.09.2013
http://primanota.ru/christians-and-lions/all-my-dead-friends-chords.htm
Привет, Гость.
Предлагаем пройти революционный курс по гитаре.
Подарок от PrimaNota.Ru, забирай!