PrimaNota.ru - самый крупный в мире бесплатный архив песенных текстов, аккордов, табулатур и нот


Christian - O Now Carry Me The Bethlehem - бас-таба, видео

Регистрация Запомнить меня
Войти через:  Facebook Google Twitter Vk Yandex Mail.ru

Christian - O Now Carry Me The Bethlehem - бас-таба, видео

Печатать
Просмотров: 225
Уроки эстрадного вокала в Санкт-Петербурге
  
Verse
  See him lying on a bed of straw
 |-------------------0------0-----|
 |-0------0-----------------------|
 |--------------------------------|
 |--------------------------------|

  a draughty stable with an open door
 |--2--------2-------------------2--------|
 |--------------------------0-------------|
 |------------------0---------------0-2-4-|
 |----------------------------------------|

   Mary cradling the babe she bore
 |-------------------0--------0---|
 |-0----0-------------------------|
 |--------------------------------|
 |--------------------------------|

    the Prince of glory is His name
 |------2---------2------------------2-|
 |-2---------------------------0---0---|
 |-----------------------0-------0-----|
 |-------------------------------------|


Chorus
   O now carry me to Bethlehem
 |-0-----4-----0-----------4----|
 |-------------------0----------|
 |------------------------------|
 |------------------------------|

    to see the Lord appear to men
 |-------------2-------------2-----2-|
 |-0---2--------------0----------0---|
 |-----------------------------0-----|
 |-----------------------------------|

   just as poor as was the stable then
 |------------------------------------|
 |-0--------------------2--2------2---|
 |---------2--------4-----------------|
 |------------------------------------|

 the Prince of glory when He came
 |---2---------2----------------------|
 |---------------------------0------0-|
 |-------------------0----------0-0---|
 |------------------------------------|
Добавлено: 04.07.2012
Другие материалы по этой песне:
  • Аккорды и текст

Страница создана 04.07.2012
http://primanota.ru/christian/o-now-carry-me-the-bethlehem-chords.htm
Привет, Гость.
Предлагаем пройти революционный курс по гитаре.
Подарок от PrimaNota.Ru, забирай!