PrimaNota.ru - самый крупный в мире бесплатный архив песенных текстов, аккордов, табулатур и нот


Christian - King Of Glory - таба, видео

Регистрация Запомнить меня
Войти через:  Facebook Google Twitter Vk Yandex Mail.ru

Christian - King Of Glory - таба, видео

Печатать
Просмотров: 161
Уроки эстрадного вокала в Санкт-Петербурге
For you Catholics, you may know this song.

Chorus:
"The King of Glory comes the nation rejoices"


G|--------------------------------------------------------------------------|
D|--------------------------------------------------------------------------|
A|-2-2-0-----------0--2-2--0------------------------------------------------|
E|---------30---3--------------3-3------------------------------------------|


Chorus(cont...):
"Open the gates before Him, Lift up your voices"


G|--------------------------------------------------------------------------|
D|---------------0----------------------------------------------------------|
A|-2--2--0--2--3----3---------------2--2---0--------------------------------|
E|------------------------------------------------3-3-----------------------|


Verse:
1. (Who is the King of Glory; How shall we call him?)
2. (In all of Galilee, in city or village.)
3. (Sing then of David's Son, Our Savior and Brother)
4. (He gave his life for us, the pledge of salvation)
5. He conquered sin and death; Je truly has risen)

G|--------------------------------------------------------------------------|
D|-0--0------------------------0-0------------------------------------------|
A|-------3--2----2-3----------------3--2--2---------------------------------|
E|------------1-------------------------------------------------------------|


Verse(cont...):
1. (He is Emmanuel, the promised of ages)
2. (He goes among his people, curing their illness)
3. (In all of Galilee, was never another)
4. (He took upon himself, the sins of the nation)
5. (And he will share with us, His Heavenly vision)

G|--------------------------------------------------------------------------|
D|-0---0------0-2-3--------------2---0-0------------------------------------|
A|----------3------------------------------3---2---2------------------------|
E|--------------------------------------------------------------------------|
Добавлено: 15.06.2012
Другие материалы по этой песне:
  • Аккорды и текст

Страница создана 15.06.2012
http://primanota.ru/christian/king-of-glory-chords.htm
Привет, Гость.
Предлагаем пройти революционный курс по гитаре.
Подарок от PrimaNota.Ru, забирай!