PrimaNota.ru - самый крупный в мире бесплатный архив песенных текстов, аккордов, табулатур и нот


Christian - Hark The Herald Angel Sing - бас-таба, видео

Регистрация Запомнить меня
Войти через:  Facebook Google Twitter Vk Yandex Mail.ru

Christian - Hark The Herald Angel Sing - бас-таба, видео

Печатать
Просмотров: 188
This is a very popular Christian Christmas song.


1. (Hark! the Herald Angel Sing, Glory to the new born King)
2. (Christ by hihest Haven adored, Christ the ever lasting LORD)
3. (Hail the Heaven-born prince of Peace! Hail the Sun of Righteousness)

G|--------------------------------------------------------------------------|
D|---------------------------------2--2--2--0-------------------------------|
A|----0--0-------0--3--3----------------------------3---2--3----------------|
E|-0---------3--------------------------------------------------------------|


1. (Peace on Earth, and Mercy Mild, God and singers reconciled)
2. (Late in time, be-hold become, Offsprings of a virgin's womb)
3. (Light and life to all he brings, Risin with healing in his wings)


G|--------------------------------------------------------------------------|
D|---------------------------------2----------------------------------------|
A|----0--0-------0---3--3-2-----------2-2-----------------------------------|
E|-0---------3------------------------------3--3--1--0----------------------|

1. (Joyful all ye nations rise, Join the triumph of the skies)
2. (Veiled in flesh the God-head see, Hail the incarnate Deity)
3. (Mild He lays His glory by, Born that we no more die)

G|---------------------------------------------------------------------------|
D|-2-2---2-------0------------------2--2--2-----0----------------------------|
A|-----------0----3--32---------------------0------3--32---------------------|
E|---------------------------------------------------------------------------|


1. (With Angelic hosts proclaim, " Christ is Born in Bethlehem!")
2. (Pleased as man with us to dwell, Jesus our Emmanuel!)
3. (Born to raise us from the earth, Born to give us second birth)

G|---------------------------------------------------------------------------|
D|-3--3--3--2--0----0-----------------------2--------------------------------|
A|---------------3-----------------2---3--------0--0-----2-----3-------------|
E|---------------------------------------------------------------------------|

Chorus:
"Hark! The Herald Angel Sing, Glory to the new born King!"

G|---------------------------------------------------------------------------|
D|-3--3-3---2---0-----0-----------------------2------------------------------|
A|-----------------3--------------------2-3-------0---0-2--0-----------------|
E|---------------------------------------------------------------------------|
Добавлено: 16.03.2012
Другие материалы по этой песне:
  • Аккорды и текст

Страница создана 16.03.2012
http://primanota.ru/christian/hark-the-herald-angel-sing-chords.htm
Привет, Гость.
Предлагаем пройти революционный курс по гитаре.
Подарок от PrimaNota.Ru, забирай!