PrimaNota.ru - самый крупный в мире бесплатный архив песенных текстов, аккордов, табулатур и нот


Christian Mcbride - Chameleon - таба, видео

Регистрация Запомнить меня
Войти через:  Facebook Google Twitter Vk Yandex Mail.ru

Christian Mcbride - Chameleon - таба, видео

Печатать
Просмотров: 98
Уроки эстрадного вокала в Санкт-Петербурге
Авторы музыки: Harvey Mason, Herbie Hancock, Paul Jackson, Bennie Maupin

Chameleon
Christian McBride's version

/= slide
^= hammer on / pull off
~=vibrato
:|= repeat
decr.= decrescendo


C#7   C#7 D7 D#7 E7   D#7   D#7 E7 F7 F#7  E7/F7  F7 F#7 G7 G#7   B6(9)

e---------------------------------------------|
B---------------------------------------------|
G--8/10---6^8---8---6---6-8-6-----------------|
D--------------------------------8^6----------|
A------------------------------------4--------|
E--------------------------------------6------|

Palm mute strum the rest of the strings during this part
e------------------------------------------:|
B------------------------------------------:|
G-------6-6--8^6-----------6-6--8--8^6-----:|
D-~6-8------------8---~6-8-------------8---:|          continues throughout the trumpet solo
A------------------------------------------:|
E------------------------------------------:|

C#7   C#7 D7 D#7 E7   D#7   D#7 E7 F7 F#7  E7/F7  F7 F#7 G7 G#7   B6(9)

e---------------------------------------------|
B---------------------------------------------|
G--8/10---6^8---8---6---6-8-6-----------------|
D--------------------------------8^6----------|
A------------------------------------4--------|
E--------------------------------------6------|

Solo in Bb

C#7   C#7 D7 D#7 E7   D#7   D#7 E7 F7 F#7  E7/F7  F7 F#7 G7 G#7   B6(9)

e---------------------------------------------|
B---------------------------------------------|
G--8/10---6^8---8---6---6-8-6-----------------|
D--------------------------------8^6----------|
A------------------------------------4--------|
E--------------------------------------6------|


  (Bass solo)
Bb7(#3)/F      Bb7/F  :|


C#7   C#7 D7 D#7 E7   D#7   D#7 E7 F7 F#7  E7/F7  F7 F#7 G7 G#7   B6(9)

e---------------------------------------------|
B---------------------------------------------|
G--8/10---6^8---8---6---6-8-6-----------------|
D--------------------------------8^6----------|
A------------------------------------4--------|
E--------------------------------------6------|

C#7    C#7 D7 D#7 E7 :|          this repeats while the head is played

e---------------------------------------------|
B---------------------------------------------|
G--8/10---6^8---8---6---6-8-6-----------------|
D--------------------------------8^6----------|
A------------------------------------4--------|
E--------------------------------------6------|


     (end)
Bbmaj7

e---18--18--18--18--18--18----|
B-----------------------------|
G-----------------------------|
D-----------------------------|
A-----------------------------|
E-----------------------------|
             decr.


chords used
__________________________________________________________________________________________________
C#7  |  D7  |  D#7  |  E7  |  F7  |  F#7  |   G7  |  G#7 | B6(9) |  Bb7(#3)/F  |  Bb7/f| Bbmaj7
--4--|---5-|----6--|----7--|--8---|--9----|---10--|--11--|-------|-----11------|---10----|--13----|
--6--|---7-|----8--|----9--|-10---|--11---|---12--|--13--|--14---|-----9-------|---9-----|--15----|
--4--|---5-|----6--|----7--|--8---|--9----|---10--|--11--|--13---|-----10------|---10----|--14----|
--6--|---7-|----8--|----9--|-10---|--11---|---12--|--13--|--13---|-----8-------|---8-----|--15----|
--4--|---5-|----6--|----7--|--8---|--9----|---10--|--11--|--14---|-----8-------|---8-----|--13----|
-----|-----|-------|-------|------|-------|-------|------|-------|-------------|---------|--------|
Добавлено: 04.12.2015
Другие материалы по этой песне:
  • Аккорды и текст

Страница создана 04.12.2015
http://primanota.ru/christian-mcbride/chameleon-chords.htm
Привет, Гость.
Предлагаем пройти революционный курс по гитаре.
Подарок от PrimaNota.Ru, забирай!