PrimaNota.ru - самый крупный в мире бесплатный архив песенных текстов, аккордов, табулатур и нот


Christian Linke - League Of Legends Theme - таба, видео

Регистрация Запомнить меня
Войти через:  Facebook Google Twitter Vk Yandex Mail.ru

Christian Linke - League Of Legends Theme - таба, видео

Печатать
Просмотров: 280
Уроки эстрадного вокала в Санкт-Петербурге
-------------------------------------------------------------------------------
         League of Legends Theme - Christian Linke (arranged by lensa)
-------------------------------------------------------------------------------
Tabbed by: lensa
E-mail: lance.ingrid1996@yahoo.com

Tuning: EADGBe (standard)

Fig. 1a
e|----------8-------11--9-8h9------6--8-9-13---9-11-----13-------------------|
B|--6---8-9-9---9-8-8----------6-9-7------11--------9------------------------|
G|--5-------10----------------------------11---------------------------------|
D|--3------------------------------------------------------------------------|
A|---------------------------------------------------------------------------|
E|---------------------------------------------------------------------------|

Fig. 1b
e|---------------------------------------------------1-----------------------|
B|----------1----------------------------6---2-4-----------------------------|
G|------0-1-1---1-0---------------3--5-6-6-------1---------------------------|
D|--3---------------1----3----3-6-4------------------------------------------|
A|--3---------------3--4-3h4-------------------------------------------------|
E|--1------------------------------------------------------------------------|

This is the main theme of League of Legends. Sustain notes for optimal sounding.
Both figures can be played together as a duet (2 guitars) or separately.
Enjoy!

************************************

| /   slide up
| \   slide down
| h   hammer-on
| p   pull-off
| ~   vibrato
| +   harmonic
| x   Mute note
| b   Bend
| pb  Pre-bend
| br  Bend release
| pbr Pre-bend release
| brb Bend release bend

************************************
Добавлено: 15.07.2015
Другие материалы по этой песне:
  • Аккорды и текст

Страница создана 15.07.2015
http://primanota.ru/christian-linke/league-of-legends-theme-chords.htm
Привет, Гость.
Предлагаем пройти революционный курс по гитаре.
Подарок от PrimaNota.Ru, забирай!